Pirate of the carribean

(/) Slide Up  (\) Slide Down  (h) Hammer On  (p) Pull Off  (b) Bend (r) Release (v) Vibrato

E|-----------------------------------------------------------------------------------------
B|-----------------------------------------------------------------------------------------
G|-----------------------------------------------------------------------------------------
D|-----------------------------------------------------------------------------------------
A|--------------0--2--3--3--3--5--2--0-----------------------0--2--3--3--5--2--2-----------
E|--0--3--5--5--------------------------3--3--5--0--3--5--5-----------------------5--3--5--



E|--------------------------------------------------------------------------------------------
B|--------------------------------------------------------------------------------------------
G|--------------------------------------------------------------------------------------------
D|--------------------------0--2--3--3--2--0--2--------------------2--------------------------
A|--------------0--3--5--5-----------------------0--0--2--3--3--5-----0--0--3--2--2-----------
E|--0--3--5--5-----------------------------------------------------------------------5--3--5--



E|-----------------------------------------------------------
B|-----------------------------------------------------------
G|-----------------------------------------------------------
D|--2--2--2--3--2--------------2--2--2--2--3--2--------------
A|-----------------5--5--5--5--------------------5--3--2--0--
E|-----------------------------------------------------------
http://www.guitartabcreator.com
Guitar Tab Creator is intended to store guitar tab created through the tool. It currently does not support in-line text editing. Any text you place in here will be lost. If you need to comment on your tab, please use the "Tab Notes" section located below.