queen st

(/) Slide Up  (\) Slide Down  (h) Hammer On  (p) Pull Off  (b) Bend (r) Release (v) Vibrato

E|-----------------------------------------------------------
B|-----------------------------------------------------------
G|-----------------------------------------------------------
D|-----------------------------------------------------------
A|-----------------------------------------------------------
E|--0--8--5----8--7--5--7--8----0--8--5----8--7--5--7--8-----



E|-----------------------------------------------------------------
B|-----------------------------------------------------------------
G|-----------------------------------------------------------------
D|-----------------------------------------------------------------
A|---------------------------------1-1-1-1-1-1-1-1-0-0-0-0-0-0-0-0-
E|-0-0-0-0-0-0-0-0-0-0-0-0-0-0-0-0---------------------------------



E|---------------------------------
B|---------------------------------
G|---------------------------------
D|---------------------------------
A|---------------------------------
E|--0--0--0--0----0----0--0--0--0--



E|-------------------------------------------------------------------
B|-------------------------------------------------------------------
G|-------------------------------------------------------------------
D|-------------------------------------------------------------------
A|-------------------------------------------------------------------
E|--0--0--0--0--0----5--5--5--5--5--5--5--5--7--7--7--7--7--7--7--7--



E|-----------------------------------------------------------------------------
B|-----------------------------------------------------------------------------
G|-----------------------------------------------------------------------------
D|-----------------------------------------------------------------------------
A|----------------8--8--8--8-------------------------------5--5--5--5----3--3--
E|--8--8--8--8--------------------5--5----0--0--0--0--0------------------------



E|---------------------------------------------------------------------
B|---------------------------------------------------------------------
G|---------------------------------------------------------------------
D|---------------------------------------------------------------------
A|---------------------------------------------------------------------
E|--8----8/10--0----8----8/10--0------8----8/10--0----8----8/10--7--5--



E|-----------------------------------------------------------------
B|-----------------------------------------------------------------
G|-----------------------------------------------------------------
D|-----------------------------------------------------------------
A|---------------------------------1-1-1-1-1-1-1-1-0-0-0-0-0-0-0-0-
E|-0-0-0-0-0-0-0-0-0-0-0-0-0-0-0-0---------------------------------



E|---------------------------------
B|---------------------------------
G|---------------------------------
D|---------------------------------
A|---------------------------------
E|--0--0--0--0----0----0--0--0--0--



E|------------------------------------------------------------------------
B|------------------------------------------------------------------------
G|------------------------------------------------------------------------
D|------------------------------------------------------------------------
A|----------------8--8--8--8--------------------------5--5--5--5----3--3--
E|--8--8--8--8------------------5--5----0--0--0--0------------------------



E|-------------------------------------------------------------------
B|-------------------------------------------------------------------
G|-------------------------------------------------------------------
D|-------------------------------------------------------------------
A|-------------------------------------------------------------------
E|--8----8/10--0----8----8/10--0----8----8/10--0----8----8/10--7--5--



E|-----------------------------------------------------
B|-----------------------------------------------------
G|-----------------------------------------------------
D|-----------------------------------------------------
A|-----------------------------------------------------
E|--0--0----5--5----7--7----0--0----5--5----7--7-------



E|--------------------------------------------------------------------------------------
B|--------------------------------------------------------------------------------------
G|--------------------------------------------------------------------------------------
D|--------------------------------------------------------------------------------------
A|--------------------------------------------------------------------------------------
E|--19\--0--0----0--0----0--0----0--0----0----5--5----5--5----5--5--7--7--7----7--7--7--



E|---------------------------------------------------------------------------------
B|---------------------------------------------------------------------------------
G|---------------------------------------------------------------------------------
D|---------------------------------------------------------------------------------
A|---------------------------------------------------------------------------------
E|--0--0----0--0----0--0----0--0----0----5--5----5--5----5--5--7--7--7----7--7--7--
http://www.guitartabcreator.com
Guitar Tab Creator is intended to store guitar tab created through the tool. It currently does not support in-line text editing. Any text you place in here will be lost. If you need to comment on your tab, please use the "Tab Notes" section located below.