Edge of Desire- John Mayer

(/) Slide Up  (\) Slide Down  (h) Hammer On  (p) Pull Off  (b) Bend (r) Release (v) Vibrato

Stave 1:

E|--------------------|--------------------|-------------------------|-----------------------------
B|--------------------|--------------------|-------------------------|-----------------------------
G|--------------------|-----------6--------|------------------9------|--------------11-------------
D|--------6-----9--6--|--------------9--7--|----------11---------11--|------------------14--12-----
A|-----7-----7--------|--0--7--9-----------|------12------12---------|------12--14-----------------
E|--5-----------------|--------------------|--10---------------------|--10-------------------------

Stave 2:

E|--------------------|-------------------|---------------------|------------------------
B|--------------------|-------------------|--------10-----9-----|------------------------
G|--------------7-----|--------6/7--------|---------------------|--11-----11--9----------
D|--------7--------9--|-------------9-----|-----9------9-----9--|------9--12--11--9--12--
A|-----9-----9--------|-----9----------9--|---------------------|------------------------
E|--7-----------------|--7----------------|--0------------------|------------------------

Stave 3:

E|--------------------|--------------------|--------------------|--------------------
B|--------------------|--------------------|--------------------|--------------------
G|--------------------|-----------6--------|--------------------|--7-----6-----------
D|--------6-----9--6--|--------------9--7--|--------6-----9--6--|-----7-----7--9--7--
A|-----7-----7--------|--0--7--9-----------|-----7-----7--------|--------------------
E|--5-----------------|--------------------|--5-----------------|--------------------

Stave 4:

E|--9/10------------------|--9/10------------------|--9/10------------------|--9/10------------------
B|--------12------10------|--------12------10------|--------12------10------|--------12------10------
G|------------11------11--|------------11------11--|------------11------11--|------------11------11--
D|------------------------|------------------------|------------------------|------------------------
A|------------------------|------------------------|------------------------|------------------------
E|------------------------|------------------------|------------------------|------------------------

Stave 5:

E|--------------------|--------------------|--------------------|--------------------
B|-----5-----5--------|-----5-----5--------|-----5-----5--------|-----5-----5--------
G|--6-----7-----6-----|--6-----7-----6-----|--6-----7-----6-----|--6-----7-----6-----
D|-----------------7--|-----------------7--|-----------------7--|-----------------7--
A|--------------------|--------------------|--------------------|--------------------
E|--------------------|--------------------|--------------------|--------------------

Stave 6:

E|--------------------
B|--------------------
G|--6--7--9--7--6-----
D|-----------------7--
A|--------------------
E|--------------------

Stave 7:

E|-------------------------------------------------|--------------------------|--
B|--12b12--12b12--12b12b12--10--12--12b12--12--12--|--10--12--14--14--12--12--|--
G|-------------------------------------------------|--------------------------|--
D|-------------------------------------------------|--------------------------|--
A|-------------------------------------------------|--------------------------|--
E|-------------------------------------------------|--------------------------|--

Stave 8:

E|--
B|--
G|--
D|--
A|--
E|--

http://www.guitartabcreator.com
Guitar Tab Creator is intended to store guitar tab created through the tool. It currently does not support in-line text editing. Any text you place in here will be lost. If you need to comment on your tab, please use the "Tab Notes" section located below.