I'll See You In My Dreams

(/) Slide Up  (\) Slide Down  (h) Hammer On  (p) Pull Off  (b) Bend (r) Release (v) Vibrato

E|----------------------
B|------------8--10--8--
G|--9--7--10------------
D|----------------------
A|----------------------
E|----------------------



E|------8--10--12--10-----10--
B|--10-----------------9------
G|----------------------------
D|----------------------------
A|----------------------------
E|----------------------------



E|--10----------------------------
B|----------------13--10--13--10--
G|------7--9--11------------------
D|--------------------------------
A|--------------------------------
E|--------------------------------



E|------------------------------
B|--10------------10--8--10--8--
G|------7--9--10----------------
D|------------------------------
A|------------------------------
E|------------------------------



E|----------------------
B|------------8--10--8--
G|--9--7--10------------
D|----------------------
A|----------------------
E|----------------------



E|------8--10--12--10-----10--
B|--10-----------------9------
G|----------------------------
D|----------------------------
A|----------------------------
E|----------------------------



E|--11--10--8----------------
B|----------------10--8------
G|-------------7---------10--
D|---------------------------
A|---------------------------
E|---------------------------



E|-----------------------
B|------------8--10------
G|--9--7--10---------10--
D|-----------------------
A|-----------------------
E|-----------------------
http://www.guitartabcreator.com
Guitar Tab Creator is intended to store guitar tab created through the tool. It currently does not support in-line text editing. Any text you place in here will be lost. If you need to comment on your tab, please use the "Tab Notes" section located below.