frag (capo 3)

(/) Slide Up  (\) Slide Down  (h) Hammer On  (p) Pull Off  (b) Bend (r) Release (v) Vibrato

E|---------------------
B|---------------------
G|--2--2---------------
D|--2--2------------5--
A|--0--0--0h3--0h3--5--
E|------------------3--



E|-----------------------------------------------------------------------------------------------
B|-----------------------------------------------------------------------------------------------
G|--2--2-----------------------2--2-----------------------2--2-----------------------------------
D|--2--2------------------5----2--2------------------5----2--2------------------5----3--5--7-----
A|--0--0--0h3--0--0h3--0--5----0--0--0h3--0--0h3--0--5----0--0--0h3--0--0h3--0--5----3--5--7-----
E|------------------------3--------------------------3--------------------------3----1--3--5-----
http://www.guitartabcreator.com
Guitar Tab Creator is intended to store guitar tab created through the tool. It currently does not support in-line text editing. Any text you place in here will be lost. If you need to comment on your tab, please use the "Tab Notes" section located below.