Bomber über Dresden - Sleipnir

(/) Slide Up  (\) Slide Down  (h) Hammer On  (p) Pull Off  (b) Bend (r) Release (v) Vibrato

E|-------------0---------------------------------------------0----------------------------------
B|----------1-----1-----1-------------0-------------------1-----1-----1-------------0-----------
G|-------2-----------2-------------2-----2-----2-------2-----------2-------------2-----2-----2--
D|------------------------------2-----------2---------------------------------2-----------2-----
A|--0----------------------0----------------------0----------------------0----------------------
E|----------------------------------------------------------------------------------------------



E|-------------0----------------------0----------------------0----------------------0-----------
B|----------0-----0-----0----------0-----0-----0----------0-----0-----0----------0-----0-----0--
G|-------0-----------0----------0-----------0----------0-----------0----------0-----------0-----
D|----------------------------------------------------------------------------------------------
A|----------------------------------------------------------------------------------------------
E|--0----------------------0----------------------0----------------------0----------------------



E|-------------3----------------------3----------------------3----------------------3-----------
B|----------0-----0-----0----------0-----0-----0----------0-----0-----0----------0-----0-----0--
G|-------0-----------0----------0-----------0----------0-----------0----------0-----------0-----
D|----------------------------------------------------------------------------------------------
A|----------------------------------------------------------------------------------------------
E|--3----------------------3----------------------3----------------------3----------------------

Stave 1:

E|-------------2h3p2--------------------0--------0-----|-----------2h3p2--------------------0--------0--3--
B|----------3---------3-----3--------3-----3--------3--|--------3---------3-----3--------3-----3-----------
G|-------2---------------2--------2-----------2--------|-----2---------------2--------2-----------2--------
D|--0--------------------------0-----------------------|--0------------------------0-----------------------
A|-----------------------------------------------------|---------------------------------------------------
E|-----------------------------------------------------|---------------------------------------------------

http://www.guitartabcreator.com
Guitar Tab Creator is intended to store guitar tab created through the tool. It currently does not support in-line text editing. Any text you place in here will be lost. If you need to comment on your tab, please use the "Tab Notes" section located below.