Song;)

(/) Slide Up  (\) Slide Down  (h) Hammer On  (p) Pull Off  (b) Bend (r) Release (v) Vibrato

E|--------------------------------------------------------------------------
B|--------------------------------------------------------------------------
G|--------------------------------------------------------------------------
D|--------2--------3--------2--3--5--3--------5--------3--------5--3--2--0--
A|--0--0-----0--0-----0--0--------------0--0-----0--0-----0--0--------------
E|--------------------------------------------------------------------------



E|--------------
B|--------------
G|--5-----------
D|--5--5--7--5--
A|--3--5--7--5--
E|-----3--5--3--



E|--------------------------------------------------------------------------
B|--------------------------------------------------------------------------
G|--------------------------------------------------------------------------
D|--------2--------3--------2--3--5--3--------5--------3--------5--3--2--0--
A|--0--0-----0--0-----0--0--------------0--0-----0--0-----0--0--------------
E|--------------------------------------------------------------------------



E|--------------
B|--------------
G|--5-----------
D|--5--5--7--5--
A|--3--5--7--5--
E|-----3--5--3--



E|--------------
B|--------------
G|--5--7--------
D|--5--7--3--5--
A|--3--5--3--5--
E|--------1--3--



E|-----------------
B|-----------------
G|--5--7-----5-----
D|--5--7--5--5--5--
A|--3--5--5--3--5--
E|--------3-----3--
http://www.guitartabcreator.com
Guitar Tab Creator is intended to store guitar tab created through the tool. It currently does not support in-line text editing. Any text you place in here will be lost. If you need to comment on your tab, please use the "Tab Notes" section located below.