Warm Up - Up and Down Picking

(/) Slide Up  (\) Slide Down  (h) Hammer On  (p) Pull Off  (b) Bend (r) Release (v) Vibrato


E|-5-5-5-5--6-6-6-6--7-7-7-7--8-8-8-8-------------------------------------
B|-------------------------------------5-5-5-5--6-6-6-6--7-7-7-7--8-8-8-8-
G|------------------------------------------------------------------------
D|------------------------------------------------------------------------
A|------------------------------------------------------------------------
E|------------------------------------------------------------------------



E|------------------------------------------------------------------------
B|------------------------------------------------------------------------
G|-5-5-5-5--6-6-6-6--7-7-7-7--8-8-8-8-------------------------------------
D|-------------------------------------5-5-5-5--6-6-6-6--7-7-7-7--8-8-8-8-
A|------------------------------------------------------------------------
E|------------------------------------------------------------------------



E|------------------------------------------------------------------------
B|------------------------------------------------------------------------
G|------------------------------------------------------------------------
D|------------------------------------------------------------------------
A|-5-5-5-5--6-6-6-6--7-7-7-7--8-8-8-8-------------------------------------
E|-------------------------------------5-5-5-5--6-6-6-6--7-7-7-7--8-8-8-8-
http://www.guitartabcreator.com
Guitar Tab Creator is intended to store guitar tab created through the tool. It currently does not support in-line text editing. Any text you place in here will be lost. If you need to comment on your tab, please use the "Tab Notes" section located below.