Copperstone Tree

(/) Slide Up  (\) Slide Down  (h) Hammer On  (p) Pull Off  (b) Bend (r) Release (v) Vibrato


E|--------------0--
B|-----------7-----
G|--------0--------
D|-----9-----------
A|-----------------
E|--0--------------



E|--------------0--
B|-----------0-----
G|--------5--------
D|-----7-----------
A|--0--------------
E|-----------------



E|--------------0--
B|-----------0-----
G|--------5--------
D|-----5-----------
A|--3--------------
E|-----------------



E|--------------2--
B|-----------0-----
G|--------2--------
D|-----1-----------
A|--2--------------
E|-----------------
http://www.guitartabcreator.com
Guitar Tab Creator is intended to store guitar tab created through the tool. It currently does not support in-line text editing. Any text you place in here will be lost. If you need to comment on your tab, please use the "Tab Notes" section located below.