Blue Pepper part 1

(/) Slide Up  (\) Slide Down  (h) Hammer On  (p) Pull Off  (b) Bend (r) Release (v) Vibrato


E|-----------------------------------------------------
B|--2--1-----------------------------------------------
G|--------3--2-----2-----------------------------------
D|--------------4-----4--3--1-----1--2--1--2--1-----1--
A|-----------------------------4-----------------4-----
E|-----------------------------------------------------



E|-----------------------------------------------------
B|--2--1-----------------------------------------------
G|--------3--2-----2-----------------------------------
D|--------------4-----4--3--1-----1--2--1--2--1-----1--
A|-----------------------------4-----------------4-----
E|-----------------------------------------------------



E|--------------------------------------------------
B|-----------------------1--------------------4--4--
G|--------------0--2--3-----------------2-----------
D|-----1--2--4--------------1--1--4--1-----1--------
A|--4-----------------------------------------------
E|--------------------------------------------------
http://www.guitartabcreator.com
Guitar Tab Creator is intended to store guitar tab created through the tool. It currently does not support in-line text editing. Any text you place in here will be lost. If you need to comment on your tab, please use the "Tab Notes" section located below.