Tab 1

(/) Slide Up  (\) Slide Down  (h) Hammer On  (p) Pull Off  (b) Bend (r) Release (v) Vibrato

Capo on 3
E|--------0-----------------------------
B|-----4--------------4-----------------
G|-----------5-----0--------------0-----
D|--6--------------------5-----0--------
A|--------------6--------------------5--
E|--------------------------6-----------



E|--------0-----------------------------------5-----
B|-----4--------------4--------------------6--------
G|-----------5-----0--------------0--------------5--
D|--6--------------------5-----0--------6-----------
A|--------------6--------------------5--------------
E|--------------------------6-----------------------
http://www.guitartabcreator.com
Guitar Tab Creator is intended to store guitar tab created through the tool. It currently does not support in-line text editing. Any text you place in here will be lost. If you need to comment on your tab, please use the "Tab Notes" section located below.