Wish It could be christhmas

(/) Slide Up  (\) Slide Down  (h) Hammer On  (p) Pull Off  (b) Bend (r) Release (v) Vibrato


E|--------------------------------------------------
B|--------------------------------------------------
G|--------------------------------------------------
D|--------------------------------------------------
A|--5--5--4--4--1--1--0--0-----------------------0--
E|--------------------------2--2--1--1--0--1--2-----



E|--------------------------------------------------
B|--3-----3-----3-----3-----3-----3-----3-----3-----
G|--------------------------------------------------
D|-----0-----0-----0-----0-----0-----0-----0-----0--
A|--5-----5-----5-----5-----5-----5-----5-----5-----
E|--------------------------------------------------



E|--3-----3-----3-----3--------
B|-----------------------------
G|-----------------------------
D|-----5-----5-----5-----5-----
A|-----------------------------
E|--3-----3-----3-----3--------



E|--------------
B|--3-----3-----
G|--------------
D|-----0-----0--
A|--5-----5-----
E|--------------



E|--------------------------------------
B|--------------------------------------
G|--------------------------------------
D|--------------------------------------
A|----------------9--9--10--10--11--11--
E|----------0--0------------------------



E|--------------------------
B|--5--5--5--5--5--5--5--5--
G|--------------------------
D|--------------------------
A|--7--7--7--7--7--7--7--7--
E|--------------------------



E|--5--5--5--5--5--5--5--5--
B|--------------------------
G|--------------------------
D|--7--7--7--7--7--7--7--7--
A|--------------------------
E|--------------------------



E|--7--7----------------------
B|----------------------------
G|----------------------------
D|--------7--7----------------
A|--------------11--11--9--9--
E|----------------------------



E|--------------7--7--7--7--------------------------
B|--5--5--5--5--------------5--5--5--5--5--5--5--5--
G|--------------------------------------------------
D|--------------------------------------------------
A|--7--7--7--7--------------7--7--7--7--7--7--7--7--
E|--------------7--7--7--7--------------------------



E|-----7--------5--5--5--7--
B|--5-----5--5--------------
G|--------------------------
D|--------------7--7--7-----
A|--7-----7--7--------------
E|-----7-----------------7--



E|-----------------
B|--------7--------
G|--------------6--
D|--7--6-----------
A|-----------7-----
E|-----------------
http://www.guitartabcreator.com
Guitar Tab Creator is intended to store guitar tab created through the tool. It currently does not support in-line text editing. Any text you place in here will be lost. If you need to comment on your tab, please use the "Tab Notes" section located below.