arts award draft 2

(/) Slide Up  (\) Slide Down  (h) Hammer On  (p) Pull Off  (b) Bend (r) Release (v) Vibrato
E|--------------------------------------3p3----------------------------------------3p3--
B|--1-----1-----1-----1-----1--------1---------1-----1-----1-----1-----1--------1-------
G|-----2-----2-----2-----2--------2---------------2-----2-----2-----2--------2----------
D|--2-----2-----2-----2--------2---------------2-----2-----2-----2--------2-------------
A|--------------------------------------------------------------------------------------
E|--------------------------------------------------------------------------------------



E|--3-----3-----3-----3-----------3---------3-----3-----3-----3-----------3-------
B|--------------------------------------------------------------------------------
G|-----1-----1-----1-----1-----1---------------1-----1-----1-----1-----1----------
D|--2-----2-----2-----2-----2--------2\4----2-----2-----2-----2-----2--------2\4--
A|--------------------------------------------------------------------------------
E|--------------------------------------------------------------------------------



E|--3-----3-----3-----3-----3---------------3-----3-----3-----3-----3-------------
B|--------------------------------------------------------------------------------
G|-----0-----0-----0-----0-----0--2h2----------0-----0-----0-----0-----0--2h2-----
D|--2-----2-----2-----2----------------2----2-----2-----2-----2----------------2--
A|--------------------------------------------------------------------------------
E|--------------------------------------------------------------------------------



E|----------------------------------------------------------------
B|--1-----1-----1-----1-----1-----1-------1--1--1--1--------1--1--
G|-----2-----2-----2-----2--2--1--2--1----2--2--------1--1--2--2--
D|--3-----3-----3-----3--------2-----2----3--3--2--2--2--2--2--2--
A|----------------------------------------------3--3--2--2--------
E|----------------------------------------------------------------



E|--------------------------------------3p3----3-----3-----3-----3-----3----------
B|--1-----1-----1-----1-----1--------1--------------------------------------------
G|-----2-----2-----2-----2--------2---------------0-----0-----0-----0-----2h2-----
D|--2-----2-----2-----2--------2---------------2-----2-----2-----2-------------2--
A|--------------------------------------------------------------------------------
E|--------------------------------------------------------------------------------
http://www.guitartabcreator.com
Guitar Tab Creator is intended to store guitar tab created through the tool. It currently does not support in-line text editing. Any text you place in here will be lost. If you need to comment on your tab, please use the "Tab Notes" section located below.