Fading Smile

(/) Slide Up  (\) Slide Down  (h) Hammer On  (p) Pull Off  (b) Bend (r) Release (v) Vibrato


E|--------------------------------------------------------------------------------------------
B|--------------4--------------------------------------4-------------6------------------------
G|-----------------3--5----3------------------------5-----5-------7-----7-----------10--------
D|-----3--4--5----------------4--5----4--3-----5/6-----------6/8-----------8--8/10------------
A|--3---------------------------------------6-------------------------------------------8-----
E|--------------------------------------------------------------------------------------------



E|---------------------------------------------------------------8--
B|---------------------------------------------------------5--8-----
G|-----------8--7-----5-------------------------------5-------------
D|-----5--8--------8-----7--5--4----------------5--7----------------
A|--6----------------------------------5--6--8----------------------
E|----------------------------------6-------------------------------



E|------------------------------------------------
B|----------4-------------6-----------------------
G|-------5-----5-------7-----7-----------10-------
D|--5/6-----------6/8-----------8--8/10-----------
A|-------------------------------------------8----
E|------------------------------------------------



E|--
B|--
G|--
D|--
A|--
E|--
http://www.guitartabcreator.com
Guitar Tab Creator is intended to store guitar tab created through the tool. It currently does not support in-line text editing. Any text you place in here will be lost. If you need to comment on your tab, please use the "Tab Notes" section located below.