E Flat practice scales

(/) Slide Up  (\) Slide Down  (h) Hammer On  (p) Pull Off  (b) Bend (r) Release (v) Vibrato


E|------------------------------0-----------------------------
B|-----------8---------------------1--------------------------
G|--------7-----9---------10----------2-----------------------
D|-----7-----------9--10-----------------3--2-----------------
A|--7---------------------------------------------2--3--5--7--
E|---------------------------------------------3--------------



E|---------------------------------------------------7--8--10--
B|----------------------------10------------------8------------
G|--------------------------------9-----------10---------------
D|--------------------5--7-----------7-----9-------------------
A|-----------3--7--5--------------------7----------------------
E|--3--5--7----------------------------------------------------
http://www.guitartabcreator.com
Guitar Tab Creator is intended to store guitar tab created through the tool. It currently does not support in-line text editing. Any text you place in here will be lost. If you need to comment on your tab, please use the "Tab Notes" section located below.