Blues Riff 1

(/) Slide Up  (\) Slide Down  (h) Hammer On  (p) Pull Off  (b) Bend (r) Release (v) Vibrato


E|-------------------
B|--3--2--1--0-------
G|--4--3--2--0h1-----
D|----------------2--
A|-------------------
E|-------------------



E|--0--0--0-0--0--0--0----------
B|--0--2--0/3--0--2--0----------
G|----------------------0h1-----
D|---------------------------2--
A|------------------------------
E|------------------------------
http://www.guitartabcreator.com
Guitar Tab Creator is intended to store guitar tab created through the tool. It currently does not support in-line text editing. Any text you place in here will be lost. If you need to comment on your tab, please use the "Tab Notes" section located below.