Intro

(/) Slide Up  (\) Slide Down  (h) Hammer On  (p) Pull Off  (b) Bend (r) Release (v) Vibrato


E|--------------------------------------
B|-----------------7--8/8b7-------------
G|-----7-----9---------------9--7--7b7--
D|--0-----0-----0-----------------------
A|--------------------------------------
E|--------------------------------------



E|--------------------------------------------------------
B|-----------------7--8--10--12--10--8--10----------------
G|-----7-----9------------------------------7--9--9b9--7--
D|--0-----0-----0--------------------------------------7--
A|-----------------------------------------------------5--
E|--------------------------------------------------------
http://www.guitartabcreator.com
Guitar Tab Creator is intended to store guitar tab created through the tool. It currently does not support in-line text editing. Any text you place in here will be lost. If you need to comment on your tab, please use the "Tab Notes" section located below.