Dumbthing

(/) Slide Up  (\) Slide Down  (h) Hammer On  (p) Pull Off  (b) Bend (r) Release (v) Vibrato

E|-----|-----|-3-0-3-2-|---0-------|-
B|-----|-----|---------|-4---2-3-3-|-
G|-----|-0---|---------|-----------|-
D|-2-3-|---1-|---------|-----------|-
A|-----|-----|---------|-----------|-
E|-----|-----|---------|-----------|-



E|-------------|---0---0-----------|---3-0-3-2-|-8-7-3-3-3-|-
B|-2-1-1-0-1-1-|-0---1---0---------|-----------|-----------|-
G|-------------|-------------------|-----------|-----------|-
D|-------------|-----------2-0-----|-----------|-----------|-
A|-------------|---------------3-2-|-1---------|-----------|-
E|-------------|-------------------|-----------|-----------|-



E|-2-2-2-0-0-0-|---2-0-2-----------|---3-0-3-2-|---0-------|-
B|-------------|-4-------3---------|-----------|-4---2-1-1-|-
G|-------------|-------------------|-----------|-----------|-
D|-------------|-------------------|-----------|-----------|-
A|-------------|-----------2-0-----|-----------|-----------|-
E|-------------|---------------3-1-|-0---------|-----------|-



E|-------------|---0---0-----------|---0---0---|-----------|-
B|-2-1-1-0-1-1-|-0---1---0---------|-----2---4-|---2-0-3---|-
G|-------------|-----------0-------|-----------|---------3-|-
D|-------------|-------------3-2-0-|-----------|-----------|-
A|-------------|-------------------|-4---------|-2---------|-
E|-------------|-------------------|-----------|-----------|-



E|--------------------------2--7--0-----
B|-----0-----1--0-----0--2--------------
G|--------2-----------------------------
D|-----------------------------------2--
A|--0--------------2--------------------
E|--------------------------------------
http://www.guitartabcreator.com
Guitar Tab Creator is intended to store guitar tab created through the tool. It currently does not support in-line text editing. Any text you place in here will be lost. If you need to comment on your tab, please use the "Tab Notes" section located below.