She's Got Issues

(/) Slide Up  (\) Slide Down  (h) Hammer On  (p) Pull Off  (b) Bend (r) Release (v) Vibrato


She’s Got Issues – The Offspring


E|------------------------------------------------------------------
B|------------------------------------------------------------------ X2- Intro
G|------------------------------------------------------------------
D|--9-9-9-xxx------------------------7-7-7-xxx---------------------- X4- Verse
A|--7-7-7-xxx-6-7-9--9-9-9-xxx-------5-5-5-xxx-4-5-7-7-7-7----------
E|-------------------7-7-7-xxx-6-7-9-----------------5-5-5-xxx-4-5-7

E|------------------------------------------------------------------
B|------------------------------------------------------------------
G|------------------------------------------------------------------ X2- Chorus
D|--9---------------7-----------------------------------------------
A|--7-x8----9-------5-x8----7---------------------------------------
E|----------7-x8------------5-x8------------------------------------

E|------------------------------------------------------------------
B|------------------------------------------------------------------
G|------------------------------------------------------------------ X2- Mid
D|--5-----------9---5-----------4-----------------------------------
A|--3---5---7---7---3---5---9---2-----------------------------------
E|------3---5-----------3---7---------------------------------------

E|-------------------------------------------------4----------------
B|--------9-----------7-----------7-----------5------5--------------
G|----9-----9-----8-----8-----7-----7-----6-----6-------------------
D|--9---9-------9---9-------7---7-------7---7-----------------------
A|------------------------------------------------------------------
E|------------------------------------------------------------------
http://www.guitartabcreator.com























<a href=http://soundfrost.org/ >youtube converter download</a>
Guitar Tab Creator is intended to store guitar tab created through the tool. It currently does not support in-line text editing. Any text you place in here will be lost. If you need to comment on your tab, please use the "Tab Notes" section located below.