Black Magic Woman - Santana version

(/) Slide Up  (\) Slide Down  (h) Hammer On  (p) Pull Off  (b) Bend (r) Release (v) Vibrato


keyboard intro - solo

E|--8--10------8--10------7--10--8--10------8--10-------------
B|---------10---------10----------------10--------------------
G|------------------------------------------------------------
D|------------------------------------------------------------
A|--3-------5------3------5------3-------5------3------5------
E|------------------------------------------------------------


keyboard intro w/ bass

E|--8--10------8--10------7--10--8--10------8--10-------------
B|---------10---------10----------------10--------------------
G|------------------------------------------------------------
D|------------------------------------------------------------
A|--3-------5------3------5------3-------5------3------5------
E|------------------------------------------------------------
Guitar Tab Creator is intended to store guitar tab created through the tool. It currently does not support in-line text editing. Any text you place in here will be lost. If you need to comment on your tab, please use the "Tab Notes" section located below.