Black Magic Woman

(/) Slide Up  (\) Slide Down  (h) Hammer On  (p) Pull Off  (b) Bend (r) Release (v) Vibrato


Black Magic Woman - Carlos Santana version


measures 1-2: Keyboard intro - solo

keys
NC
E|--8--10------8--10------7--10----|--8--10------8--10----------------
B|---------10---------10-----------|---------10-----------------------
G|---------------------------------|----------------------------------
D|---------------------------------|----------------------------------
A|--3-------5------3------5--------|--3-------5------3-------5--------
E|---------------------------------|----------------------------------
bass
G|---------------------------------|----------------------------------
D|---------------------------------|----------------------------------
A|---------------------------------|----------------------------------
E|---------------------------------|------------------------------5---


measures 3-4: Keyboard intro - w/ bass

keys
NC
E|--8--10------8--10------7--10----|--8--10------8--10----------------
B|---------10---------10-----------|---------10-----------------------
G|---------------------------------|----------------------------------
D|---------------------------------|----------------------------------
A|--3-------5------3------5--------|--3-------5------3-------5--------
E|---------------------------------|----------------------------------
bass
G|---------------------------------|----------------------------------
D|---------------------------------|-----------------------------7s3--
A|--5------------------------------|----------------------------------
E|---------------------------------|----------------------------------


measures 5-6: Keyboard and bass w /lead guitar

keys
NC
E|--8--10------8--10------7--10----|--8--10------8--10----------------
B|---------10---------10-----------|---------10-----------------------
G|---------------------------------|----------------------------------
D|---------------------------------|----------------------------------
A|--3-------5------3------5--------|--3-------5------3-------5--------
E|---------------------------------|----------------------------------
bass
G|---------------------------------|----------------------------------
D|---------------------------------|-----------------------------7s3--
A|--5--------------0---5--5--------|----------------------------------
E|---------------------------------|----------------------------------
lead guitar
E|---------------------------------|----------------------------------
B|---------------------------------|----------------------------------
G|--12p10--(sustain and hold)------|-------------------------------7b/
D|---------------------------------|----------------------------------
A|---------------------------------|----------------------------------
E|---------------------------------|----------------------------------


measures 7-8: Keyboard and bass w /lead guitar

keys
NC
E|--8--10------8--10------7--10----|--8--10------8--10----------------
B|---------10---------10-----------|---------10-----------------------
G|---------------------------------|----------------------------------
D|---------------------------------|----------------------------------
A|--3-------5------3------5--------|--3-------5------3-------5--------
E|---------------------------------|----------------------------------
bass
G|---------------------------------|----------------------------------
D|---------------------------------|-----------------------------7s3--
A|--5--------------0---5--5--------|----------------------------------
E|---------------------------------|----------------------------------
lead guitar
E|---------------------------------|----------------------------------
B|---------------------------------|----------------------------------
G|9\7--(sustain and hold)----------|----------------------------10h12p
D|---------------------------------|----------------------------------
A|---------------------------------|----------------------------------
E|---------------------------------|----------------------------------


measures 9-10: Keyboard and bass w /lead guitar

keys
NC
E|--8--10------8--10------7--10----|--8--10------8--10----------------
B|---------10---------10-----------|---------10-----------------------
G|---------------------------------|----------------------------------
D|---------------------------------|----------------------------------
A|--3-------5------3------5--------|--3-------5------3-------5--------
E|---------------------------------|----------------------------------
bass
G|---------------------------------|----------------------------------
D|---------------------------------|-----------------------------7s3--
A|--5--------------0---5--5--------|----------------------------------
E|---------------------------------|----------------------------------
lead guitar
E|---------------------------------|----------------------------------
B|---------------------------------|----------------------------------
G|10 (sustain and hold)------------|------------------------------7b/9
D|---------------------------------|----------------------------------
A|---------------------------------|----------------------------------
E|---------------------------------|----------------------------------


measures 11-12: Keyboard and bass w /lead guitar

keys
NC
E|--8--10------8--10------7--10----|--8--10------8--10----------------
B|---------10---------10-----------|---------10-----------------------
G|---------------------------------|----------------------------------
D|---------------------------------|----------------------------------
A|--3-------5------3------5--------|--3-------5------3-------5--------
E|---------------------------------|----------------------------------
bass
G|---------------------------------|----------------------------------
D|---------------------------------|-----------------------------7s3--
A|--5--------------0---5--5--------|----------------------------------
E|---------------------------------|----------------------------------
lead guitar
E|---------------------------------|----------------------------------
B|---------------------------------|----------------------------------
G|9\7 (sustain and hold)-----------|----------------------------------
D|---------------------------------|----------------------------------
A|---------------------------------|----------------------------------
E|---------------------------------|----------------------------------


measures 13-14: Keyboard and bass w /lead guitar

keys
NC Gm7
E|--8--10------8--10------7--10----|--3-------------------------------
B|---------10---------10-----------|--3-------------------------------
G|---------------------------------|--3-------------------------------
D|---------------------------------|--3-------------------------------
A|--3-------5------3------5--------|--5-------------------------------
E|---------------------------------|--3-------------------------------
bass
G|---------------------------------|----------------------------------
D|---------------------------------|-----------------------------7s3--
A|--5--------------0---5--5--------|----------------------------------
E|---------------------------------|----------------------------------
lead guitar
E|---------------------------------|----------------------------------
B|--10---------8-------------------|----------------------------------
G|---------------------------10p9--|(hold and sustain)----------------
D|---------------------------------|----------------------------------
A|---------------------------------|----------------------------------
E|---------------------------------|----------------------------------


measures 15-16: Keyboard and bass w /lead guitar

keys
Gm7 Dm7
E|--3------------------------------|--5------------------------------
B|--3------------------------------|--6------------------------------
G|--3------------------------------|--5------------------------------
D|--3------------------------------|--7------------------------------
A|--5------------------------------|--5------------------------------
E|--3------------------------------|---------------------------------
bass
G|---------------------------------|----------------------------------
D|---------------------------------|-----------------------------7s3--
A|--5--------------0---5--5--------|----------------------------------
E|---------------------------------|----------------------------------
lead guitar
E|---------------------------------|----------------------------------
B|--8----------6-------------------|----------------------------------
G|---------------------------9s7---|(hold and sustain)----------------
D|---------------------------------|----------------------------------
A|---------------------------------|----------------------------------
E|---------------------------------|----------------------------------


measures 17-18: Keyboard and bass w /lead guitar

keys
E|--5------------------------------|--8--10------8--10----------------
B|--6------------------------------|---------10-----------------------
G|--5------------------------------|----------------------------------
D|--7------------------------------|----------------------------------
A|--5------------------------------|--3-------5------3-------5--------
E|---------------------------------|----------------------------------
bass
G|---------------------------------|----------------------------------
D|---------------------------------|-----------------------------7s3--
A|--5--------------0---5--5--------|----------------------------------
E|---------------------------------|----------------------------------
lead guitar
E|---------------------------------|----------------------------------
B|---------------------------------|----------------------------------
G|---------------------------------|----------------------------------
D|---------------------------------|----------------------------------
A|---------------------------------|----------------------------------
E|---------------------------------|----------------------------------


measures 19-20: Keyboard and bass w /lead guitar

keys
E|--8--10------8--10------7--10----|--8--10------8--10----------------
B|---------10---------10-----------|---------10-----------------------
G|---------------------------------|----------------------------------
D|---------------------------------|----------------------------------
A|--3-------5------3------5--------|--3-------5------3-------5--------
E|---------------------------------|----------------------------------
bass
G|---------------------------------|----------------------------------
D|---------------------------------|-----------------------------7s3--
A|--5--------------0---5--5--------|----------------------------------
E|---------------------------------|----------------------------------
lead guitar
E|---------------------------------|----------------------------------
B|---------------------------------|----------------------------------
G|---------------------------------|----------------------------------
D|---------------------------------|----------------------------------
A|---------------------------------|----------------------------------
E|---------------------------------|----------------------------------
Guitar Tab Creator is intended to store guitar tab created through the tool. It currently does not support in-line text editing. Any text you place in here will be lost. If you need to comment on your tab, please use the "Tab Notes" section located below.