Earth Song

(/) Slide Up  (\) Slide Down  (h) Hammer On  (p) Pull Off  (b) Bend (r) Release (v) Vibrato


E|----------15--18--17--15---------------------|------18--17--15-----------------|------18--17--15-------------------------
B|------15------------------17--17/20--17------|--15--------------17--17/20--17--|--15--------------17--17--20--17---------
G|--15-------------------------------------17--|---------------------------------|----------------------------------17/19--
D|---------------------------------------------|---------------------------------|-----------------------------------------
A|---------------------------------------------|---------------------------------|-----------------------------------------
E|---------------------------------------------|---------------------------------|-----------------------------------------



E|---------------|---------------|------------------|---------------------|--
B|---------------|---------------|------------------|--------------6------|--
G|--7--5--3--5v--|--7--5--3--5v--|--7--5--3--5--5v--|--3--5--7--7-----7v--|--
D|---------------|---------------|------------------|---------------------|--
A|---------------|---------------|------------------|---------------------|--
E|---------------|---------------|------------------|---------------------|--



E|--------------------|----------------------|-------------------|-----------------------|--
B|--------------------|--8-------------------|-------------------|--6----------------10--|--
G|--5--7--8--8--8/10--|-----7--5--3--5--5/7--|--7--5--5h7--8--8--|-----7--7--11--11------|--
D|--------------------|----------------------|-------------------|-----------------------|--
A|--------------------|----------------------|-------------------|-----------------------|--
E|--------------------|----------------------|-------------------|-----------------------|--



E|------18--17--18--17--15----------15--------------|-------|--
B|--15----------------------17--17------17--15------|-------|--
G|----------------------------------------------17--|--/19--|--
D|--------------------------------------------------|-------|--
A|--------------------------------------------------|-------|--
E|--------------------------------------------------|-------|--
http://www.guitartabcreator.com
Guitar Tab Creator is intended to store guitar tab created through the tool. It currently does not support in-line text editing. Any text you place in here will be lost. If you need to comment on your tab, please use the "Tab Notes" section located below.