I See The Light Chorus

(/) Slide Up  (\) Slide Down  (h) Hammer On  (p) Pull Off  (b) Bend (r) Release (v) Vibrato

Stave 1:

E|--5--7--8--------0--3--------------3--1--1--0--5--7--8--------0--3-
B|-----------6--6--------1--3--3--3-----------------------6--6------\
G|-------------------------------------------------------------------
D|-------------------------------------------------------------------
A|-------------------------------------------------------------------
E|-------------------------------------------------------------------

Stave 2:

E|--------0--1--0--------5--7--8--------0--3--------0--1--0-----------
B|--1--3-----------3--1-----------6--6--------1--3-----------3--3--1--
G|--------------------------------------------------------------------
D|--------------------------------------------------------------------
A|--------------------------------------------------------------------
E|--------------------------------------------------------------------

Stave 3:

E|--0--1--1--3--------------
B|--1--0--1--0-----------1--
G|--0--0--2--0--------0-----
D|--2--0--3--0-----2--------
A|--3--3-----2--3-----------
E|--------3--3--------------

http://www.guitartabcreator.com
Guitar Tab Creator is intended to store guitar tab created through the tool. It currently does not support in-line text editing. Any text you place in here will be lost. If you need to comment on your tab, please use the "Tab Notes" section located below.