I See The Light

(/) Slide Up  (\) Slide Down  (h) Hammer On  (p) Pull Off  (b) Bend (r) Release (v) Vibrato


E|--3--1--0-----0--------------3--1--0-----0----------
B|-----------3-----3--0--1--------------3-----3--0--1\
G|--------------------------0-------------------------
D|----------------------------------------------------
A|----------------------------------------------------
E|----------------------------------------------------



E|--5--3--1-----8--------------3--1--0--------
B|-----------8-----8-----5--3-----------1--3--
G|--------------------5-----------------------
D|--------------------------------------------
A|--------------------------------------------
E|--------------------------------------------



E|--3--1--0-----0--------------3--1--0-----0-----------
B|-----------3-----3--0--1--------------3-----3--0--1--
G|--------------------------0--------------------------
D|-----------------------------------------------------
A|-----------------------------------------------------
E|-----------------------------------------------------



E|--5--3--------7--5--3-----8--7--5-----3--
B|--------6--------------------------5-----
G|-----------5-----------5-----------------
D|-----------------------------------------
A|-----------------------------------------
E|-----------------------------------------



E|--
B|--
G|--
D|--
A|--
E|--
http://www.guitartabcreator.com
Guitar Tab Creator is intended to store guitar tab created through the tool. It currently does not support in-line text editing. Any text you place in here will be lost. If you need to comment on your tab, please use the "Tab Notes" section located below.