Lead 3 DC

(/) Slide Up  (\) Slide Down  (h) Hammer On  (p) Pull Off  (b) Bend (r) Release (v) Vibrato


E|--------------------------------------------------------------------
B|-----------1-----------------0-----------------0--------------------
G|--------0-----0-----------2-----2-----------0-----0--------------0--
D|-----2-----------2-----2-----------2-----2-----------2--------3-----
A|--3-----------------0-----------------2--------------------3--------
E|--------------------------------------------------------3-----------



E|-----------------------------------------------
B|-----------------------------------------------
G|-----------------------------------------------
D|--8--8--8--8--4--4--4--4--6--6--6--6--3--4--3--
A|--8--8--8--8--4--4--4--4--6--6--6--6--3--4--3--
E|--8--8--8--8--4--4--4--4--6--6--6--6--3--4--3--
http://www.guitartabcreator.com
Guitar Tab Creator is intended to store guitar tab created through the tool. It currently does not support in-line text editing. Any text you place in here will be lost. If you need to comment on your tab, please use the "Tab Notes" section located below.