Home - Michael Buble (Verse)

(/) Slide Up  (\) Slide Down  (h) Hammer On  (p) Pull Off  (b) Bend (r) Release (v) Vibrato
E|---------------------------------------------------
B|--------------0----------------------0-------------
G|--------0-----0--0--2h4--------0-----0--0--2\4-----
D|-----0-----2----------------0-----2----------------
A|---------------------------------------------------
E|--3----------------------2----------------------0--



E|--------------------------------------------------------------------------------
B|-----0-------------------------------------0-----3----------------0-------------
G|-----0--0--0--0-----------0--0--0-------0--------2--0-------------4--0--2\4--2--
D|--0-----------------0--0-----------0h2--------0--------2\5-----5----------------
A|-----------------5-----------------3--------------------------------------------
E|------------------------------------------------------------3-------------------



E|------------------------------------------------------
B|--------------0----------------------0----------------
G|--------0-----0--0--2h4--------0-----0--0--2\4--------
D|-----0-----2----------------0-----2-------------------
A|------------------------------------------------------
E|--3----------------------2----------------------0-----



E|---------------------------------------------------------------------------------------
B|-----0----------------------------------------0-------------------------------------3--
G|-----0--0--0--0-----------0--0--0----------0--------------0--0-----0--0----0--2--4-----
D|--0-----------------0--0-----------0--0h2--------0--0--4--------------0h2--------------
A|-----------------5-----------------3--3----------------5-------------------------------
E|----------------------------------------------------------------3----------------------
http://www.guitartabcreator.com
Guitar Tab Creator is intended to store guitar tab created through the tool. It currently does not support in-line text editing. Any text you place in here will be lost. If you need to comment on your tab, please use the "Tab Notes" section located below.