suit up

(/) Slide Up  (\) Slide Down  (h) Hammer On  (p) Pull Off  (b) Bend (r) Release (v) Vibrato
E|-----------------------------------
B|-----0-------0-------0---2p0-0-2p0-
G|-------4-------4-------4-----------
D|---4-------4-------4---------------
A|-2-------2-------0-----------------
E|-----------------------------------
Intro: 4ggr


E|-------------------------------------------------------------------------------
B|--------0-------------0----------------0-----------0---------------------------
G|-----------4-------------4----------4-----------4-----4------------------------
D|-----4-------------4-------------4-----------4-----------4---------------------
A|-------------------------------------------------------------------------------
E|--0-----------0h2-----------2h3-----------3-----------------3--3/5--5--5/8--7--
Slut på intro 1 gång hit -----------------i Andra varvet resten


E|----------------------
B|----------------------
G|--------4--------0/5--
D|-----4--------0-------
A|--2--------0----------
E|----------------------
Detta är inte med i låten


E|----------------------------------------------
B|----------------------------------------------
G|-4---4---4---4---4-5--4---4---4-------------5-
D|-4---4---4---4---4-5--4---4---4-------------5-
A|-2-0-2-0-2-0-2-0-2-3--2-0-2-0-2-0-0-0-0-0-0-3-
E|----------------------------------------------
2 gånger


E|-----------------------------------------------
B|-----------------------------------------------
G|-4-----------4-------------4-----------2-------
D|-4-4-4-4-4-x-4-4-4-4-4/5-x-4-4-4-4-4-x-2-2-2-2-2-5
A|-2-2-2-2-2-x-2-2-2-2-2/3-x-2-2-2-2-2-x-0-0-0-0-0-3-
E|-----------------------------------------------
2 gånger


E|------------------------------------------------------------------------------------
B|------------------------------------------------------------------------------------
G|------------------------------------------------------------------------------------
D|--------------4--------------------2h4--0--------------2-------------------------0--
A|--2--2--2--2-----2--2----------------------0--0--0--0-----0--0--------------0h2-----
E|-----------------------3--3--3--3-------------------------------2--2--2--2----------
4 gånger
http://www.guitartabcreator.com
Guitar Tab Creator is intended to store guitar tab created through the tool. It currently does not support in-line text editing. Any text you place in here will be lost. If you need to comment on your tab, please use the "Tab Notes" section located below.