remebering the fallen

(/) Slide Up  (\) Slide Down  (h) Hammer On  (p) Pull Off  (b) Bend (r) Release (v) Vibrato


E|------------------------------------------------------------------------
B|------------------------------------------------------------------------
G|------------------------------------------------------------------------
D|------------------------------------------------------------------------
A|------------------------------------------------------------------------
E|--5--3--1----1--3--5----5--3--1----1--3--5----5--3--1----0--0--0--0--0--



E|---------------------------------------------------
B|---------------------------------------------------
G|---------------------------------------------------
D|---------------------------------------------------
A|-5-5-5-5-5-5-5-5-5-5-5-5-5-5-5-5-5-5-5-5-5-5-5-5-5-
E|---------------------------------------------------



E|----------------------------------------------------------------------------------
B|----------------------------------------------------------------------------------
G|----------------------------------------------------------------------------------
D|----------------------------------------------------------------------------------
A|--5--5--5--------------------3--3--3----5--5--5--------------------------3--3--3--
E|-----------5--5--5--3--3--3------------------------5--5--5----3--3--3-------------



E|--------------------------------------------------------------------------
B|--------------------------------------------------------------------------
G|--------------------------------------------------------------------------
D|--------------------------------------------------------------------------
A|-----------3--3--3-----------5--5--5-----------3--3--3--1--1--1--0--0--0--
E|--3--3--3-----------5--5--5-----------3--3--3-----------------------------



E|-5-5-5-5---------7-7-7-7---------5-5-5-5---------3-3-3-3-2-2-2-2-
B|---------5-5-5-5---------7-7-7-7---------5-5-5-5-----------------
G|-----------------------------------------------------------------
D|-----------------------------------------------------------------
A|-----------------------------------------------------------------
E|-----------------------------------------------------------------



E|-------------------------------------------------------------------------
B|-------------------------------------------------------------------------
G|-------------------------------------------------------------------------
D|-------------------------------------------------------------------------
A|-5-5-5-5-----------------3-3-3-3-3-3-3-3---------3-3-3-3---------5-5-5-5-
E|---------5-5-5-5-3-3-3-3-----------------3-3-3-3---------5-5-5-5---------



E|-----------------------------
B|-----------------------------
G|-----------------------------
D|-----------------------------
A|-5-5-5-5-5---------3-3-3-3-5-
E|-----------5-5-5-5-----------
http://www.guitartabcreator.com
Guitar Tab Creator is intended to store guitar tab created through the tool. It currently does not support in-line text editing. Any text you place in here will be lost. If you need to comment on your tab, please use the "Tab Notes" section located below.