Sealed with A Kiss

(/) Slide Up  (\) Slide Down  (h) Hammer On  (p) Pull Off  (b) Bend (r) Release (v) Vibrato


E|-----------------------------------------9--9--6--11--11--6--8--8--13--11--9--8--9--
B|--6--6--9--9--13--13--11--9--8--9--6--6---------------------------------------------
G|------------------------------------------------------------------------------------
D|------------------------------------------------------------------------------------
A|------------------------------------------------------------------------------------
E|------------------------------------------------------------------------------------



E|---------------------
B|--9--6--11--9--8--6--
G|---------------------
D|---------------------
A|---------------------
E|---------------------



E|--9--11--9--8--8--6--8---------------------
B|------------------------9--6--11--9--8--6--
G|-------------------------------------------
D|-------------------------------------------
A|-------------------------------------------
E|-------------------------------------------
http://www.guitartabcreator.com
Guitar Tab Creator is intended to store guitar tab created through the tool. It currently does not support in-line text editing. Any text you place in here will be lost. If you need to comment on your tab, please use the "Tab Notes" section located below.