Lost Bass

(/) Slide Up  (\) Slide Down  (h) Hammer On  (p) Pull Off  (b) Bend (r) Release (v) Vibrato

Verse
E|--10-------10-0--------9-------9-0--------
A|------------------------------------------
Chorus
E|-------------------------------------------------------------------
A|--4--4--4-4-4--9--9--9-9-9--0--0--0-0-0-22244-4-2h
D|-------------------------------------------------------------------
G|-------------------------------------------------------------------
Bridge
E|--2-2--2-2--2--2-2--2-2--2-----------------------------------
A|----------------------------5-5--5-5--5--2-2--2-2--2---------




Guitar Tab Creator is intended to store guitar tab created through the tool. It currently does not support in-line text editing. Any text you place in here will be lost. If you need to comment on your tab, please use the "Tab Notes" section located below.