Ashes Bass

(/) Slide Up  (\) Slide Down  (h) Hammer On  (p) Pull Off  (b) Bend (r) Release (v) Vibrato


C|--0--3-5-6-5-3-0--0-3-5-6-3-0--0-3-5-6-5-3-0--0-1-0-1-0-3-----------------------
A|--------------------------------------------------------------------------------
D|-------------------------------------------------------------------------------- Main Riff
G|--------------------------------------------------------------------------------




C|--0--0-0-3-0--0-0--0-3-0-3--0-0-0-3-0--0--3-5-6-5-3-0------------------
A|----------------------------------------------------------------------- Verse
D|-----------------------------------------------------------------------
G|-----------------------------------------------------------------------




E|-----------------7--7--7--7--7--3--3--3--3--3--5--5--5--5--5--
A|--3--3--3--3--3-----------------------------------------------
D|-------------------------------------------------------------- Chorus
G|--------------------------------------------------------------


E|-0-0-0-0-0-0-0-0-1-1-1-1-1-1-1-1-3-3-3-3-3-3-3-3-5-5-5-5-5-5-5-5-
A|-----------------------------------------------------------------
D|----------------------------------------------------------------- Build Up
G|-----------------------------------------------------------------

Pause for 1 main riff progression
Play for one main riff Progression
Main Riff x2
Verse x2
Chorus x4
Main Riff x2
Verse x2
Chorus x4
Build Up x2
Pause for 2 main riffs
Main Riff x4
Chorus x4
Verse x1
Main Riff x1
http://www.guitartabcreator.com
Guitar Tab Creator is intended to store guitar tab created through the tool. It currently does not support in-line text editing. Any text you place in here will be lost. If you need to comment on your tab, please use the "Tab Notes" section located below.