Anticipation

(/) Slide Up  (\) Slide Down  (h) Hammer On  (p) Pull Off  (b) Bend (r) Release (v) Vibrato

D|-6-6-6--4-----2-2-2--
B|----------4-2--------
G|--------------------- Intro/Verse
D|---------------------



D|--------------------------6--6--6--6--4--4--4--4----
B|--4--4--4--4--4--4--4--4----------------------------
G|---------------------------------------------------- Bridge To Chorus
D|----------------------------------------------------




D|--8--8--8--8--8--8--8--8--8--8--8--4--4--4--4--2--2--2--2--
B|-----------------------------------------------------------
G|----------------------------------------------------------- Chorus
D|-----------------------------------------------------------


D|------------9-9--9-4--
B|--4-4--7-6--------------
G|-------------------------- Bridge
D|--------------------------

http://www.guitartabcreator.com
Guitar Tab Creator is intended to store guitar tab created through the tool. It currently does not support in-line text editing. Any text you place in here will be lost. If you need to comment on your tab, please use the "Tab Notes" section located below.