Little Things

hey guys, this is little things by one direction. 
it basically has this finger-picking pattern
throughout the song, but i included the chords for
it at the bottom of the tab so you could mix it up a
bit for the chorus. good luck bebz (:


E|--------------------------------------------------------------------------------------------------
B|--------3--------3--------------3--------3--------------3--------3--------------3--------3--------
G|--------0--------0--0-----------0--------0--------------0--------0--0-----------0--------0--0-----
D|-----0--------0--------0-----0--------0--------------2--------2--------0-----0--------2--------2--
A|--------------------------------------------0--2--3--------3--------------3--------3--------------
E|--3--------3--------------3--------3--------------------------------------------------------------



E|--------------------------------------------------------------------------------------------------
B|--------3--------3--------------3--------3--------------3--------3--------------1--------3--------
G|--------0--------0--0-----------0--------0--0-----------2--------2--2-----------0-----2--2--------
D|-----2--------2--------2-----2--------2--------2-----0--------0--------0-----2-----0-----------0--
A|--------------------------------------------------------------------------3-----------------------
E|--0--------0--------------0--------0--------------2--------2--------------------------------3-----



E|-----------------|
B|--3--------3-----|
G|--0--------0--0--|
D|--------0--------|
A|-----------------|
E|-----3-----------|


Chords:

G Cad9 Em7 D/F# C D G


tumblr: pimpstagram.tumblr.com
ask fm: ask.fm/pimpstagram
Guitar Tab Creator is intended to store guitar tab created through the tool. It currently does not support in-line text editing. Any text you place in here will be lost. If you need to comment on your tab, please use the "Tab Notes" section located below.