1 Bass Taviio

(/) Slide Up  (\) Slide Down  (h) Hammer On  (p) Pull Off  (b) Bend (r) Release (v) Vibrato


E|----------------------------------------------------
B|----------------------------------------------------
G|----------------------------------------------------
D|----------------------------------------------------
A|----------------------------------------------------
E|-0--0-0--0-0--0-0-0-0-0-0-0-0--0-0-0-0--0-0-0-0-0-0-



E|----------------------------------------------------
B|----------------------------------------------------
G|----------------------------------------------------
D|----------------------------------------------------
A|----------------------------------------------------
E|-1-1--1-1--1-1-1-1-1-1-1-1--1-1-1-1--1-1-1-1-1-1--1-



E|----------------------------------------------------------
B|----------------------------------------------------------
G|----------------------------------------------------------
D|----------------------------------------------------------
A|---------------------------5------------------------------
E|-0-0-0-0-0-0-0-0-0-0-0-0-0----0-0-0-0-0-0-0-0-0-0-0-0-4-3-



E|----------------------------------------------------------------
B|----------------------------------------------------------------
G|----------------------------------------------------------------
D|----------------------------------------------------------------
A|-----------------------------3----------------------------------
E|-0-0-0-0-0-0-0-0-0-0-0-0-0-0----0-0-0-0-0-0-0-0-0-0-0-0-1-1-1-1-



E|--------------------------------------------------------------
B|--------------------------------------------------------------
G|--------------------------------------------------------------
D|------------------------------10------------------------------
A|----------------------------8---------------------------------
E|-7-9--0-0-0--0-0-0--0-0-0-8-------0-0-0--0-0-0--0-0-0-8-8-2-2-



E|------------------------------------------------------------------------------
B|------------------------------------------------------------------------------
G|------------------------------------------------------------------------------
D|-------------------------10--------------15-----------------------13----------
A|-----------------------8------------------------------------------------------
E|-0-0-0--0-0-0--0-0-0-8-------12-12-12-12----12-12-12--10-10-10-10----10-10-10-



E|---------------------------------------------------------
B|---------------------------------------------------------
G|---------------------------------------------------------
D|---------------------------------------------------------
A|--------------------------8------------------------------
E|-0-0-0--0-0-0--0-0-0-8-10----0-0-0--0-0-0--0-0-0-8-8-7-7-



E|------------------------------------------------------|-------------
B|------------------------------------------------------|-------------
G|------------------------------------------------------|-------------
D|-------------------------------------7-8----------3-2-|-------------
A|--------------------------8---------------------------|-------------
E|-0-0-0--0-0-0--0-0-0-8-10----5-5-5-5------3-3-3-3-----|-4-3-1-4-3-1-



E|----------------------------------------------------------------------
B|----------------------------------------------------------------------
G|----------------------------------------------------------------------
D|--------------------------------------------------------------------7-
A|------------------------------------------------------------------8---
E|-0--0-0-0-0-0-0-0--0-0-0-0-0-0-0--0--0-0-0-0-0-0-0--0-0-0-0-0-0-7-----



E|---------------------------------------
B|---------------------------------------
G|---------------------------------------
D|---------------------------------------
A|---------------------------------------
E|-0--0-0-0-0-0-0-0--0-0-0-0-0-0-8-8-7-7-



E|---------------------------------------------------
B|---------------------------------------------------
G|---------5-----------5-----------------------------
D|---7-8-----8---7-8-----8----7-----7-----7----------
A|-5-----5-----5-----5----------8-----8-----8--------
E|--------------------------7-----7-----7-----7-8-10-



E|---------------------------
B|---------------------------
G|---------------------------
D|---------------------------
A|---------------------------
E|-0-0-0--0--0-0--0-0--0-0-0-
http://www.guitartabcreator.com
Guitar Tab Creator is intended to store guitar tab created through the tool. It currently does not support in-line text editing. Any text you place in here will be lost. If you need to comment on your tab, please use the "Tab Notes" section located below.