Al mar

(/) Slide Up  (\) Slide Down  (h) Hammer On  (p) Pull Off  (b) Bend (r) Release (v) Vibrato
E|----------------------------------------------------------3----------------------------------------
B|---------------------------------------------------------------------------------------------------
G|-----0-----0-----------------------2h4h2--------5/--3--------2h4h2---------------------------3-----
D|--5-----3--------0-----0------------------3--5---------5------------3------------------3--5-----5--
A|--------------5-----3--------0-----------------------------------------3\1--------3h5--------------
E|--------------------------6-----3-------------------------------------------3--3-------------------



E|-----------1--6--3--8---6--3--------------3--5--3-----3--3--------------------3--5--3--
B|-----------1--6--3--8---6--3--------------3-----3-----------6--3--5--5--3-----3-----3--
G|-----------2--8--3--10--8--3--3--3-----3--5--5--3--5-----------------------5--5--5--3--
D|--3-----5--3--8--5--10--8--5--------5-----5--4--5-----------------------------5--4--5--
A|-----5-----3--6--5--8---6--5--------------3--5--5-----------------------------3--5--5--
E|-----------1--6--3--8---6--3--------------3-----3-----------------------------3-----3--



E|--------------------3--5--3----------------------------3--5--3--5--------------------------------
B|-----------3--------3-----3-------6--6--6--6--6--6--6--3-----3-----------------------------------
G|--3--3--5-----5--3--5--5--3--3h7--7--7--7--7--7--7--7--5--5--3--5-----------2h3p2--------5/3-----
D|--------------------5--4--5----------------------------5--4--5--4------------------3--5----------
A|--------------------5--5--5----------------------------3--5--5--5--------------------------------
E|--------------------3-----3----------------------------3-----3-----------------------------------



E|----------------------------------------------------------
B|--------------------------------1--3--2--1----------------
G|--5--2h3p2----------------0--3--------------3--2--0-------
D|------------3----------------------------------------3h5--
A|---------------3\1----------------------------------------
E|--------------------3--3----------------------------------
http://www.guitartabcreator.com
Guitar Tab Creator is intended to store guitar tab created through the tool. It currently does not support in-line text editing. Any text you place in here will be lost. If you need to comment on your tab, please use the "Tab Notes" section located below.