Jolene

                                  Dm   F   C                          
E|------0--0h1---------0h1---------X---1---X-------0--0h1------0h1----
B|--------------3-----------3------X---3---3--------------3--------3--
G|----2----------------------------0---3---2-----2--------------------
D|--0---------------0--------------2---2---0---0------------0---------
A|---------------------------------3---1---1--------------------------
E|---------------------------------1---1---0--------------------------

C
E|------0--0h1---------0h1---------X-------0--0h1------0h1-----
B|--------------3-----------3------3--------------3--------3---
G|----2----------------------------2-----2---------------------
D|--0---------------0--------------0---0------------0----------
A|---------------------------------1---------------------------
E|---------------------------------0---------------------------

Dm F C Dm C
E|------0--0h1---------X---1---X---X---X-------0--0h1------0h1----
B|--------------3------X---3---3---X---3--------------3--------3--
G|----2----------------0---3---2---0---2-----2--------------------
D|--0------------------2---2---0---2---0---0------------0---------
A|---------------------3---1---1---3---1--------------------------
E|---------------------1---1---0---1---0--------------------------
Guitar Tab Creator is intended to store guitar tab created through the tool. It currently does not support in-line text editing. Any text you place in here will be lost. If you need to comment on your tab, please use the "Tab Notes" section located below.