Sweet Child o' mine intro

(/) Slide Up  (\) Slide Down  (h) Hammer On  (p) Pull Off  (b) Bend (r) Release (v) Vibrato


E|------------------15------14----------------------15------14------
B|------15------------------------------15--------------------------
G|----------14--12------14------14----------14--12------14------14--
D|--12------------------------------12------------------------------
A|------------------------------------------------------------------
E|------------------------------------------------------------------



E|------------------15------14----------------------15------14------
B|------15------------------------------15--------------------------
G|----------14--12------14------14----------14--12------14------14--
D|--14------------------------------14------------------------------
A|------------------------------------------------------------------
E|------------------------------------------------------------------



E|------------------15------14----------------------15------14------
B|------15------------------------------15--------------------------
G|--12------14--12------14------14--12------14--12------14------14--
D|------------------------------------------------------------------
A|------------------------------------------------------------------
E|------------------------------------------------------------------



E|------------------15------14----------------------15------14------
B|------15------------------------------15--------------------------
G|----------14--12------14------14----------14--12------14------14--
D|--12------------------------------12------------------------------
A|------------------------------------------------------------------
E|------------------------------------------------------------------
http://www.guitartabcreator.com
Guitar Tab Creator is intended to store guitar tab created through the tool. It currently does not support in-line text editing. Any text you place in here will be lost. If you need to comment on your tab, please use the "Tab Notes" section located below.