One Step At A Time (Acoustic Version)

(/) Slide Up  (\) Slide Down  (h) Hammer On  (p) Pull Off  (b) Bend (r) Release (v) Vibrato
E|---------------------------------------------------------------------------------------------
B|--------0-----------0-----------1h0--------------------0-----------0--------------0----------
G|-----------0-----------0-------------0-----0--------------0-----------0--------5----------7--
D|-----0-----------0-----------0----------0-----0-----0-----------0-----------0----------------
A|--------------2-----------3----------------------3-----------5-----------7-------------7-----
E|--3------------------------------------------------------------------------------------------



E|---------------------------------------------------------------------------------------------
B|--------0-----------0-----------1h0--------------------0-----------0--------------0----------
G|-----------0-----------0-------------0--------0-----------0-----------0--------5----------7--
D|-----0-----------0-----------0-------------0--------0-----------0-----------0----------------
A|--------------2-----------3-------------3--------3-----------5-----------7-------------7-----
E|--3------------------------------------------------------------------------------------------



E|----------------------------------------------
B|----------------------------------------------
G|--------0---------------0---------------0-----
D|-----0-----0---------0-----0---------0-----0--
A|--3---------------3---------------5-----------
E|----------------------------------------------



E|-----------------------------------------------------------------------
B|-----------------------------------------------------------------------
G|---------------4-----------------------------------4-------------------
D|---------5-----------5-------------5---------5-----------5-------------
A|--5h7p5-----5-----5-----7--7p5--5-----5h7p5-----5-----5-----7--7p5--5--
E|-----------------------------------------------------------------------



E|--3------x------x------x------x------3--
B|--3------7------8------7------5------3--
G|--0------0------0------0------0------0--
D|--0------x------x------x------x------2--
A|--2------5------7------5------3------3--
E|--3-------------------------------------



E|--3------x------3------x--
B|--3------7------3------3--
G|--0------0------0------0--
D|--0------0------2------1--
A|--2------5------3------3--
E|--3-----------------------



E|-----------------------------------------------------------------
B|-----------------------------------------------------------------
G|--------0--------0--------0--------0--------0--------------------
D|-----0-----0--------0--------0--------0--------0-----------------
A|-----------------------------------------------------------------
E|--3-----------3--------3--------3--------3-----------------------



E|-----------------------------------------------------
B|-----------------------------------------------------
G|-----0--------0--------0--------0--------0-----------
D|--------0--------0--------0--------0--------0--------
A|-----------0--------3--------3--------3--------3-----
E|--3--------------------------------------------------



E|-------------------------------------------------------------------------------------------------
B|-------------------------------------------------------------------------------------------------
G|-----0--------0----------0--------0--------0-----------------0--------0--------0--------0--------
D|--------0--------0----------0--------0--------------------------0--------0--------0--------0-----
A|-----------0--------3/5--------5--------5-----5\3--3/5--5/7-----------------3--------3--------3--
E|--3----------------------------------------------------------------3-----------------------------



E|-------------------------------------------------------------
B|-------------------------------------------------------------
G|--0-------------0--------0--------0--------0--------0--------
D|-----0-------------0--------0--------0--------0--------0-----
A|--------3--5/7-----------------5--------5--------5--------5--
E|----------------------3--------------------------------------



E|----------------------------------------------------x--
B|----------------------------------------------------3--
G|-------0--------0--------0--------0--------0--------0--
D|----------0--------0--------0--------0--------0-----0--
A|--3/7-----------------5--------5--------5--------5--2--
E|-------------3--------------------------------------3--



E|--x--x--x--x--x--x--0--------------------
B|--3--3--3--3--3--3--0--3--3--0--3--3--3--
G|--0--0--0--0--0--2--0--0--0--0--0--2--0--
D|--0--2--2--0--2--0--2--0--2--2--0--0--1--
A|--2--0--3--2--0--0--2--2--3--2--2--0--3--
E|--3--------3--------0--3-----0--3--------
http://www.guitartabcreator.com
Guitar Tab Creator is intended to store guitar tab created through the tool. It currently does not support in-line text editing. Any text you place in here will be lost. If you need to comment on your tab, please use the "Tab Notes" section located below.