Tetris Theme

(/) Slide Up  (\) Slide Down  (h) Hammer On  (p) Pull Off  (b) Bend (r) Release (v) Vibrato


E|--0-----------------------------0--------------------0--------------
B|--------0--1--3--1--0-----1--3-----3--1--0--0--1--3-----1-----------
G|-----2--------1--------2-----------------1-----------------2--2-----
D|-----------------------2-----------------------------------2--2-----
A|--0--------------------0--------0-----------------------0-----------
E|--------------0--------------------------0--------0-----------------



E|--------1--3/5--3--5--0-----0--------------------0-----------
B|-----3-------------------1-----3--1--0--0--1--3-----1--------
G|-----2-------------------------------1-----------------2--2--
D|--0--------0-------------------------------------------2--2--
A|----------------------0-----------------------------0--------
E|-------------------------------------0--------0--------------



E|--0--------------------------------------------------------------------
B|--------------1-----------3-----------0-----------1--------------------
G|-----2-----2-----2-----2-----2-----2-----2-----2-----2-----2--2-----1--
D|--------2-----------2-----------2-----------2-----------2--------2-----
A|--0-----------0-----------0-----------0-----------0-----------0--------
E|--------------------------------------------------------------------0--



E|--0--------------------------------------------------0--5-----4--
B|--------------1-----------3-----------0-----------1--------5--5--
G|-----2-----2-----2-----2-----2-----2-----2-----2--------------4--
D|--------2-----------2-----------2-----------2--------------------
A|--0-----------0-----------0-----------0-----------0--------------
E|--------------------------------------------------------------0--
http://www.guitartabcreator.com
Guitar Tab Creator is intended to store guitar tab created through the tool. It currently does not support in-line text editing. Any text you place in here will be lost. If you need to comment on your tab, please use the "Tab Notes" section located below.