He's a Pirate

(/) Slide Up  (\) Slide Down  (h) Hammer On  (p) Pull Off  (b) Bend (r) Release (v) Vibrato
E|-----------------------1--1-----1--3-----------------------
B|-----1--3--3-----3--5-----------------5--5-----3--1--1--3--
G|--2--------------------------------------------------------
D|--------0-----0--------------------------------------0-----
A|-----------------------1-----1--------3-----3--------------
E|-----------------------------------------------------------



E|-----------------------1--1-----1--3--------------------
B|-----1--3--3-----3--5-----------------5--5-----3--1--3--
G|--2-----------------------------------------------------
D|--------0-----0--------------------------------------0--
A|--------------------------------------3-----3-----------
E|-----------------------3-----3--------------------------



E|--------------------1--3--3-----3--5--6--6-----5--3--5-----
B|-----1--3--3-----3--------------------------------------3--
G|--2--------------------------------------------------------
D|--------0-----0--------------------------------------0-----
A|--------------------------------------0-----0--------------
E|-----------------------5-----5-----------------------------



E|-----0--1--1-----3--5------------1--0--0-----1-----0--
B|--3--------------------3------3-----------------3-----
G|------------------------------------------------------
D|------------------------------------------------------
A|--------1-----1---------------------0-----0--------0--
E|--------------------0---------------------------------



E|-----0--1--1-----3--5------------1--0--0--------------
B|--3--------------------3------3--------------3--1--3--
G|------------------------------------------------------
D|---------------------------------------------------0--
A|--------1-----1---------------------0-----0-----------
E|--------------------0---------------------------------
http://www.guitartabcreator.com
Guitar Tab Creator is intended to store guitar tab created through the tool. It currently does not support in-line text editing. Any text you place in here will be lost. If you need to comment on your tab, please use the "Tab Notes" section located below.