Killer Rabbit

(/) Slide Up  (\) Slide Down  (h) Hammer On  (p) Pull Off  (b) Bend (r) Release (v) Vibrato
E|--------------------------------------------
B|--------------------------------------------
G|--------------------------------------------
D|--------------------------------------------
A|------14--------12-------10-------9----7----
E|--12--------10--------8--------7------------



E|-------------------------------------------------------------------------
B|-------------------------------------------------------------------------
G|-------------------------------------------------------------------------
D|-------14-------14-------14-------14-------12-------12-------12-------12-
A|----14-------14-------14-------14-------12-------12-------12-------12----
E|-12-------12-------12-------12-------10-------10-------10-------10-------



E|---------------------------------------------------------
B|---------------------------------------------------------
G|---------------------------------------------------------
D|------10------10------10------10-----9-----9-----9-----9-
A|---10------10------10------10------9-----9-----9-----9---
E|-8-------8-------8-------8-------7-----7-----7-----7-----



E|------------------------------------------------------------------------------
B|------------------------------------------------------------------------------
G|------------------------------------------------------------------------------
D|-------14-------14-----------9-----9----------10------10----------9-----9-----
A|----14-------14-------14---9-----9-----9---10------10------10---9-----9-----9-
E|-12-------12-------12----7-----7-----7---8-------8-------8----7-----7-----7---



E|----------------------------------------------------------------------
B|----------------------------------------------------------------------
G|----------------------------------------------------------------------
D|-------14-------14-----------9-----9----------10------10--------------
A|----14-------14-------14---9-----9-----9---10------10------10----9v---
E|-12-------12-------12----7-----7-----7---8-------8-------8----7-------



E|--------------------------------------------------------------------------------------
B|--------------------------------------------------------------------------------------
G|--------------------------------------------------------------------------------------
D|-------14-------14-------------17-------17------------10------10----------9-----9-----
A|----14-------14-------14----17-------17-------17---10------10------10---9-----9-----9-
E|-12-------12-------12----15-------15-------15----8-------8-------8----7-----7-----7---




E|-----------------------------------------------------------------------------
B|-----------------------------------------------------------------------------
G|-----------------------------------------------------------------------------
D|-------14-------14-------------17-------17------------10------10-------------
A|----14-------14-------14----17-------17-------17---10------10------10----9v--
E|-12-------12-------12----15-------15-------15----8-------8-------8----7------



E|-------------------------------------------------------------------------------------------------
B|-------------------------------------------------------------------------------------------------
G|-------------------------------------------------------------------------------------------------
D|-------------------------------------------------------------------------------------------------
A|-14-14-14-14-14-14-14-14-14-14-14-14-14-14-14-14-12-12-12-12-12-12-12-12-12-12-12-12-12-12-12-12-
E|-12-12-12-12-12-12-12-12-12-12-12-12-12-12-12-12-10-10-10-10-10-10-10-10-10-10-10-10-10-10-10-10-



E|---------------------------------------------------------------------------------
B|---------------------------------------------------------------------------------
G|---------------------------------------------------------------------------------
D|---------------------------------------------------------------------------------
A|-10-10-10-10-10-10-10-10-10-10-10-10-10-10-10-10-9-9-9-9-9-9-9-9-9-9-9-9-9-9-9-9-
E|-8--8--8--8--8--8--8--8--8--8--8--8--8--8--8--8--7-7-7-7-7-7-7-7-7-7-7-7-7-7-7-7-



E|---------------------------------------------------------------------------------
B|---------------------------------------------------------------------------------
G|---------------------------------------------------------------------------------
D|---------------------------------------------------------------------------------
A|-14-14-14-14-14-14-14-14-9-9-9-9-9-9-9-9-10-10-10-10-10-10-10-10-9-9-9-9-9-9-9-9-
E|-12-12-12-12-12-12-12-12-7-7-7-7-7-7-7-7-8--8--8--8--8--8--8--8--7-7-7-7-7-7-7-7-



E|-----------------------------------------------------------------------------------------
B|-----------------------------------------------------------------------------------------
G|-----------------------------------------------------------------------------------------
D|-----------------------------------------------------------------------------------------
A|-14-14-14-14-14-14-14-14-17-17-17-17-17-17-17-17-10-10-10-10-10-10-10-10-9-9-9-9-9-9-9-9-
E|-12-12-12-12-12-12-12-12-15-15-15-15-15-15-15-15-8--8--8--8--8--8--8--8--7-7-7-7-7-7-7-7-




http://www.guitartabcreator.com
Guitar Tab Creator is intended to store guitar tab created through the tool. It currently does not support in-line text editing. Any text you place in here will be lost. If you need to comment on your tab, please use the "Tab Notes" section located below.