Arctic Monkeys- Teddy Picker

(/) Slide Up  (\) Slide Down  (h) Hammer On  (p) Pull Off  (b) Bend (r) Release (v) Vibrato
E|--------------|-----------------|-----------------|-----------------|--
B|--------------|-----------------|-----------------|-----------------|--
G|--------------|-----------------|-----------------|-----------------|--
D|--------------|-----------------|-----------------|-----------------|--
A|--------6--5--|-----------6--5--|-----------6--5--|-----------6--5--|--
E|--5--5--------|--4--5--5--------|--4--5--5--------|--4--5--5--------|--



E|-----------------|-----------------|-----------------|-----------------|--
B|-----------------|-----------------|-----------------|-----------------|--
G|-----------------|-----------------|-----------------|-----------------|--
D|-----------------|-----------------|-----------------|-----------------|--
A|-----------------|-----------------|-----------6--5--|-----------6--5--|--
E|--5--0--0--4--0--|--5--0--0--4--0--|--7--5--5--------|--4--5--5--------|--



E|-----------------|--
B|-----------------|--
G|-----------------|--
D|-----------------|--
A|-----------6--5--|--
E|--4--5--5--------|--



E|----------------------|------
B|----------13--15--12--|--10--
G|------14--------------|--9---
D|--15------------------|--7---
A|----------------------|------
E|----------------------|------



E|----------------------|-----
B|----------13--15--12--|-----
G|------14--------------|--8--
D|--15------------------|--8--
A|----------------------|--6--
E|----------------------|-----



E|-----------------|--
B|-----------------|--
G|-----------------|--
D|-----------------|--
A|--------0--6--5--|--
E|--5--5-----------|--



E|-------------------------------------|--
B|----------13--15--15--13--12--10-----|--
G|------14--------------------------9--|--
D|--15---------------------------------|--
A|-------------------------------------|--
E|-------------------------------------|--



E|--0--0--0--5/13--12--|--12--12--12--12/15--15--15--
B|---------------------|-----------------------------
G|---------------------|-----------------------------
D|---------------------|-----------------------------
A|---------------------|-----------------------------
E|---------------------|-----------------------------



E|--0--0--17----------|------------------15--15--15--|--0--0--17--------------------------
B|------------18--17--|--17--17--17--17--------------|------------18--17--15--13--12--10--
G|--------------------|------------------------------|------------------------------------
D|--------------------|------------------------------|------------------------------------
A|--------------------|------------------------------|------------------------------------
E|--------------------|------------------------------|------------------------------------



E|--5--5/17--17--|--
B|--5--5---------|--
G|---------------|--
D|---------------|--
A|---------------|--
E|---------------|--



E|--17--17--17--17--17--15--|--15--15--13--13--12--|--------------|------17--
B|--------------------------|----------------------|--13--12------|--17------
G|--------------------------|----------------------|----------14--|----------
D|--------------------------|----------------------|--------------|----------
A|--------------------------|----------------------|--------------|----------
E|--------------------------|----------------------|--------------|----------



E|-------------|------
B|---------10--|--10--
G|--10--9--9---|--9---
D|--10--9--7---|--7---
A|--8---7------|------
E|-------------|------



E|-------------|-----
B|---------10--|-----
G|--10--9--9---|--8--
D|--10--9--7---|--8--
A|--8---7------|--6--
E|-------------|-----



E|-----------------|-----------------|--------------
B|-----------------|-----------------|--------------
G|-----------------|-----------------|--------------
D|-----------------|-----------------|--------------
A|-----------------|-----------------|--------------
E|--5--0--0--4--0--|--5--0--0--4--0--|--4--------5--
http://www.guitartabcreator.com
Guitar Tab Creator is intended to store guitar tab created through the tool. It currently does not support in-line text editing. Any text you place in here will be lost. If you need to comment on your tab, please use the "Tab Notes" section located below.