Arctic Monkeys- Old Yellow Bricks

(/) Slide Up  (\) Slide Down  (h) Hammer On  (p) Pull Off  (b) Bend (r) Release (v) Vibrato
E|-----------------|-----------------|-----------------|-----------------|--
B|-----------------|-----------------|-----------------|-----------------|--
G|-----------------|-----------------|-----------------|-----------------|--
D|-----------------|-----------------|-----------------|-----------------|--
A|-----------------|--7--7--7--7--7--|--8--8--8--8--8--|--5--5--5--5--5--|--
E|--5--5--5--5--5--|-----------------|-----------------|-----------------|--



E|---------------|---------------|---------------|-----|--
B|---------------|---------------|---------------|-----|--
G|--7--9--10--9--|--7--9--10--9--|--7--9--10--9--|--7--|--
D|--7--9--10--9--|--7--9--10--9--|--7--9--10--9--|--7--|--
A|--5--7--8---7--|--5--7--8---7--|--5--7--8---7--|--5--|--
E|---------------|---------------|---------------|-----|--



E|------------|--------------|---------------|--------------|---------------|--------------|-----
B|------------|--------------|---------------|--------------|---------------|--------------|-----
G|------------|--------------|---------------|--------------|---------------|--------------|-----
D|-----9--10--|--------------|--------9--10--|--------------|--------9--10--|--------------|-----
A|--7---------|--5--7--2--3--|--5--7---------|--5--7--2--3--|--5--7---------|--5--7--2--3--|-----
E|------------|--------------|---------------|--------------|---------------|--------------|-----



E|---------------|--------|--|--|-----------
B|---------------|--------|--|--|-----------
G|---------------|--------|--|--|-----------
D|--------9--10--|--------|--|--|-----------
A|--5--7---------|--5--7--|--|--|-----------
E|---------------|--------|--|--|--5--5--5--



E|--------------|--
B|--5--6--5--4--|--
G|--------------|--
D|--------------|--
A|--------------|--
E|--------------|--



E|------------------
B|--12--13--12--13--
G|------------------
D|------------------
A|------------------
E|------------------
http://www.guitartabcreator.com
Guitar Tab Creator is intended to store guitar tab created through the tool. It currently does not support in-line text editing. Any text you place in here will be lost. If you need to comment on your tab, please use the "Tab Notes" section located below.