Twilight Zone Solo 2

E|--------------------------------------------------------------------------------------------|
B|--------------------------------------------------------------------------------------------|
G|--------------------------7---7h9p7---7---7------------------------------------9-9----------|
D|------7~~-9~~-----7---7h9---9-------9---9----9~~------7~~-9~~-----7---7--7-7-------9p7-9~~~-|
A|--7/9---------7h9---9-----------------------------7/9---------7h9---9--------9--------------|
E|--------------------------------------------------------------------------------------------|

E|-----------------5-----5-----5-----5-----5-----5-------5--5--5--5--5--5-----------|
B|-------------------------------------------------------5--5--5--5--5--5----5---5--| -note 3
G|------7-7-7--7b9---7b9---7b9---7b9---7b9---7b9----7b9~b9~b9~b9~-7r~7r~7r~--5---5--|
D|--7/9------------------------------------------------------------------------7----|
A|----------------------------------------------------------------------------------|
E|----------------------------------------------------------------------------------|

E|------------------------------10-------10-12-12b14-12-----------------------------|
B|-----10-10--12~~12~~12~~12~~12--12~~-12--------------12~~10~~12~~12~~12\0---------| -note 4
G|-/11------------------------------------------------------------------------------|
D|----------------------------------------------------------------------------------|
A|----------------------------------------------------------------------------------|
E|----------------------------------------------------------------------------------|

E|----7---7------7-----7---------------------12-------------------------------------|
B|-/7---7----5/7---5/7---10-12-12p10---12-12---12p10--------------------------------|
G|-----------------------------------9---------------9-9h11p9------9----------------|
D|------------------------------------------------------------12-9---12-9\7/9-9h12p9|
A|----------------------------------------------------------------------------------|
E|----------------------------------------------------------------------------------|

E|----------------------------------------------------------------------------------|
B|---------------------------10-10----10~~10~~10~~10~~10~~10~~10---10-12~~12~~10~~12|
G|----9h11p9------9---9-9h11-------11----------------------------11-----------------|
D|-12--------12-9---12--------------------------------------------------------------|
A|----------------------------------------------------------------------------------|
E|----------------------------------------------------------------------------------|

E|-------10-12-12b14--12--10----10-12b14--10----------10-12-12b14-10----------------|
B|-10/12---------------------12-------------12~~---12---------------12--10-12-10-12-|
G|----------------------------------------------------------------------------------|
D|----------------------------------------------------------------------------------|
A|----------------------------------------------------------------------------------|
E|----------------------------------------------------------------------------------|

E|-----10-12-12b14-10----10-12b14-12-10-12b14-10-------------------10---------------|
B|--12----------------12------------------------12-12--12-10-12--12--12--12-10-12\--|
G|----------------------------------------------------------------------------------|
D|----------------------------------------------------------------------------------|
A|----------------------------------------------------------------------------------|
E|----------------------------------------------------------------------------------|

E|--10-10-10-10-10-10-10-10--9--9--9--9--9--9--9--9--|
B|--12-12-12-12-12-12-12-12--10-10-10-10-10-10-10-10-|
G|---------------------------------------------------|
D|---------------------------------------------------|
A|---------------------------------------------------|
E|---------------------------------------------------|

E|--10-10-10-10-10-10-10-10--9--9--9--9--9--9--9--9--|
B|--12-12-12-12-12-12-12-12--10-10-10-10-10-10-10-10-|
G|---------------------------------------------------|
D|---------------------------------------------------|
A|---------------------------------------------------|
E|---------------------------------------------------|

E|--10-10-10-10-10-10-10-10--12-12-12-12-12-12-12-12-|
B|--12-12-12-12-12-12-12-12--12-12-12-12-12-12-12-12-|
G|---------------------------------------------------|
D|---------------------------------------------------|
A|---------------------------------------------------|
E|---------------------------------------------------|

E|--14-14-14-14-14-14-14-14--12/15-17-----15-17-17b19|
B|--12-12-12-12-12-12-12-12------------17------------|
G|---------------------------------------------------|
D|---------------------------------------------------|
A|---------------------------------------------------|
E|---------------------------------------------------|
Guitar Tab Creator is intended to store guitar tab created through the tool. It currently does not support in-line text editing. Any text you place in here will be lost. If you need to comment on your tab, please use the "Tab Notes" section located below.