Twilight Zone chorus 3 and outro

Chorus 3:

Bm
Help I'm steppin' into the twilight zone
A
The place is a madhouse, feels like being cloned
G
My beacon's been moved under moon and star
F#
Where am I to go, now that I've gone too far?

Bm
Help I'm steppin' into the twilight zone
A
The place is a madhouse, feels like being cloned
G
My beacon's been moved under moon and star
F#
Where am I to go, now that I've gone too far?

G
Soon you will come to know,
Em
When the bullet hits the bone

E|--------------------------------------------|
B|--------------7--------------7--------------|
G|--------------7--------------7--------------|
D|---9~~9~~9~~9------9~~9~~9~~----------------|
A|--------------------------------------------|
E|--------------------------------------------|

G
Soon you will come to know,
Em
When the bullet hits the bone

E|-----------------------------7--------------|
B|-12~~12~~12~~10~~10~~--10b12---10p7---------|
G|------------------------------------9-7-----|
D|----------------------------------------9---|
A|--------------------------------------------|
E|--------------------------------------------|

G
Soon you will come to know,
Em
When the bullet hits the bone

E|--------------------------------------------|
B|--------------7--------------7--------------|
G|--------------7--------------7--------------|
D|---9~~9~~9~~9------9~~9~~9~~----------------|
A|--------------------------------------------|
E|--------------------------------------------|

G
Soon you will come to know,
Em
When the bullet hits the bone

Outro:

(When the bullet hits the bone, ahaa, when the bullet hits the bone) -note 5

E|--7---7---7---7---7---7-----------------------------------|
B|--10b-10b-10b-10b-10b-10b--12r10--10-7~~--(12/10-7~~)-----|
G|----------------------------------------------------------|
D|----------------------------------------------------------|
A|----------------------------------------------------------|
E|----------------------------------------------------------|

E|----------------------------------------------------------|
B|----------------------------------------------------------|
G|--9-9/11----7h9p7---7h9p7---9b11-9b11-9p7---7-9p7---7-----|
D|---------9~~------9-------9---------------9-------9----9--|
A|----------------------------------------------------------|
E|----------------------------------------------------------|

E|--------------------------------------------|
B|--------------------------------------------| -Everything after the 7s on
G|------7-7-(--7h9p7-------7-)----------------| the g might not even be there.
D|--7h9-----(9-------9p7h9---)----------------| The guitar is drowned out for
A|--------------------------------------------| a few seconds.
E|--------------------------------------------|

E|--------------------------------------------|
B|--------------------------------------------|
G|--------------------------------------------|
D|--------------------------------------------|
A|--------------------------------------------|
E|--------------------------------------------|
Guitar Tab Creator is intended to store guitar tab created through the tool. It currently does not support in-line text editing. Any text you place in here will be lost. If you need to comment on your tab, please use the "Tab Notes" section located below.