Twilight Zone

E|----------------------------------------------------------------------------------------------------
B|----------------------------------------------------------------------------------------------------
G|--------------------------7---7h9p7---7---7----------------------------------9-9--------------------
D|------7~~-9~~-----7---7h9---9-------9---9----9~~------7~~-9~~-----7---7--7-------9p7-9~~~-----------
A|--7/9---------7h9---9-----------------------------7/9---------7h9---9------9------------------------
E|----------------------------------------------------------------------------------------------------

E|-----------------5-----5-----5-----5-----5-----5-------5--5--5--5--5--5-----------------------------
B|-------------------------------------------------------5--5--5--5--5--5----5---5--------------------
G|------7-7-7--7b9---7b9---7b9---7b9---7b9---7b9----7b9--7b~7b~7b~7r~7r~7r~--5---5--------------------
D|--7/9------------------------------------------------------------------------7----------------------
A|----------------------------------------------------------------------------------------------------
E|----------------------------------------------------------------------------------------------------
Guitar Tab Creator is intended to store guitar tab created through the tool. It currently does not support in-line text editing. Any text you place in here will be lost. If you need to comment on your tab, please use the "Tab Notes" section located below.