Disenchanted

(/) Slide Up  (\) Slide Down  (h) Hammer On  (p) Pull Off  (b) Bend (r) Release (v) Vibrato

Structure:
Into
Main riff x 3
Link
Chorus
Main riff x 2
Link
Chorus
Bridge
Main riff x 1
Chorus with end on Am



E|----------|----------|----------|----------|
B|----------|----------|----------|----------|
G|--9-9-9---|--7-7-7---|--4-4-4---|--0-2-2---|
D|--------7-|--------5-|--------2-|----------|
A|----------|----------|----------|----------|
E|----------|----------|----------|----------|


Main Riff

E|--------------------|------------------------|--------------------|------------------------|
B|-----1-----0h1------|---------1-----0--------|-----1-----0h1------|---------1-----0--------|
G|-----------------2--|-----------------2----2-|-----------------0--|-----------------0----0-|
D|---2---2-------2----|-----2-----2-------2----|---2---2-------2----|-----2-----2-------2----|
A|0-------------------|--0---------------------|--------------------|------------------------|
E|--------------------|------------------------|3-------------------|--3---------------------|

E|--------------------|------------------------|--------------------|--------------------|
B|-----1-----0h1------|---------1-----0--------|--------------------|--------------------|
G|-----------------2--|-----------------2----2-|----0-------0-----0-|----0-------0-----0-|
D|---0---0-------0----|-----0-----0-------0----|------0-------0-----|------0-------0-----|
A|--------------------|------------------------|--3-------3-----3---|--2-------2-----2---|
E|2-------------------|--2---------------------|--------------------|--------------------|




Link

E|------------------|------------------|
B|------------------|------------------|
G|------------------|------------------|
D|----3-----3-----3-|----5-----5-----5-|
A|------3-----3-----|------5-----5-----|
E|--1-----1-----1---|--3-----3-----3---|






Chorus

Am C G G

Am C G G

Am C G G

F F G G


Bridge

E|------------------|------------------|------------------|------------------|
B|------------------|------------------|------------------|------------------|
G|--7-7-7-7-7-7-7-7-|------------------|--5-5-5-5-5-5-5-5-|------------------|
D|--7-7-7-7-7-7-7-7-|--7-7-7-7-7-7-7-9-|--5-5-5-5-5-5-5-5-|--5-5-5-5-5-5-5-5-|
A|--5-5-5-5-5-5-5-5-|--7-7-7-7-7-7-7-9-|--3-3-3-3-3-3-3-3-|--5-5-5-5-5-5-5-5-|
E|------------------|--5-5-5-5-5-5-5-7-|------------------|--3-3-3-3-3-3-3-3-|

E|------------------|------------------|------------------|-----------------------|
B|------------------|------------------|------------------|-----------------------|
G|--7-7-7-7-7-7-7-7-|------------------|--5-5-5-5-5-5-5-5-|-----------------------|
D|--7-7-7-7-7-7-7-7-|--7-7-7-7-7-7-7/9-|--5-5-5-5-5-5-5-5-|--5------------5-----5-|
A|--5-5-5-5-5-5-5-5-|--7-7-7-7-7-7-7/9-|--3-3-3-3-3-3-3-3-|--5--------------5-----|
E|------------------|--5-5-5-5-5-5-5/7-|------------------|--3----------3-----3---|
Guitar Tab Creator is intended to store guitar tab created through the tool. It currently does not support in-line text editing. Any text you place in here will be lost. If you need to comment on your tab, please use the "Tab Notes" section located below.