Sound will begin in 5 seconds

ESCALAS # Modos # 1

01234567891011121314151617181920212223
E
B
G
D
A
E
B
0 1 2 3 4 5 6 7 8 9 10 11 12 13 14 15 16 17 18 19 20 21 22 23
Song Science #1: How Pros Use 6 Chords to Write Hit Songs
(/) Slide Up  (\) Slide Down  (h) Hammer On  (p) Pull Off  (b) Bend (r) Release (v) Vibrato

Stave 1:

E|------------------------------------------------------------------------------------------------------------------------------------------------------------------11------11--13--11--13--14--
B|------------------------------------------------------------------------------------------------------------------------------11------11--13--11--13--14--13--14------14----------------------
G|------------------------------------------------------------------------------------------10------10--11--10--11--13--11--13------13----------------------------------------------------------
D|------------------------------------------------------10------10--11--10--11--13--11--13------13----------------------------------------------------------------------------------------------
A|---------------------9------9--11--9--11--13--11--13------13----------------------------------------------------------------------------------------------------------------------------------
E|--9--11--13--11--13-----13--------------------------------------------------------------------------------------------------------------------------------------------------------------------

Stave 2:

E|--14--13--11--13--11------11------------------------------------------------------------------------------------------------------------------------------------------------------------
B|----------------------14------14--13--14--13--11--13--11------11------------------------------------------------------------------------------------------------------------------------
G|----------------------------------------------------------12------12--10--12--10--9--10--9------9---------------------------------------------------------------------------------------
D|--------------------------------------------------------------------------------------------12-----12--10--12--10--9--10--9------9------------------------------------------------------
A|-----------------------------------------------------------------------------------------------------------------------------12-----12--10--12--10--8--10--8------8---------------------
E|--------------------------------------------------------------------------------------------------------------------------------------------------------------12-----12--10--12--10--8--

http://www.guitartabcreator.com
Guitar Tab Creator is intended to store guitar tab created through the tool. It currently does not support in-line text editing. Any text you place in here will be lost. If you need to comment on your tab, please use the "Tab Notes" section located below.