Sound will begin in 5 seconds

song

01234567891011121314151617181920212223
E
B
G
D
A
E
B
0 1 2 3 4 5 6 7 8 9 10 11 12 13 14 15 16 17 18 19 20 21 22 23
Song Science #1: How Pros Use 6 Chords to Write Hit Songs
(/) Slide Up  (\) Slide Down  (h) Hammer On  (p) Pull Off  (b) Bend (r) Release (v) Vibrato

Stave 1:

E|--------------------------------------------------------------------------------------------------------------
B|--------------------------------------------------------------------------------------------------------------
G|--7--7--7--7--9--9--9--9--5--5--5--5--4--4--4--4--7--7--7--7--9--9--9--9--3--3--3--3--1--1--1--1--------------
D|--7--7--7--7--9--9--9--9--5--5--5--5--4--4--4--4--7--7--7--7--9--9--9--9--3--3--3--3--1--1--1--1--------------
A|--5--5--5--5--7--7--7--7--3--3--3--3--2--2--2--2--5--5--5--5--7--7--7--7--1--1--1--1--0--0--0--0--------------
E|--------------------------------------------------------------------------------------------------------------

Stave 2:

E|------------------------------------------------------------------------------------------------
B|------------------------------------------------------------------------------------------------
G|--------------------------8--------7--------5------------------------------5--------7--------4--
D|--6--6--7--6--7--6--6--6-----6--6-----6--6---------6--6--7--6--7--6--6--6-----6--6-----6--6-----
A|------------------------------------------------------------------------------------------------
E|------------------------------------------------------------------------------------------------

Stave 3:

E|------------------------------------------------
B|------------------------------------------------
G|------------------------------------------------
D|--6--6--7--6--7--6--6--8--7--6--5--6--7--6--5v--
A|------------------------------------------------
E|------------------------------------------------

Stave 4:

E|--------------------------------------------------------------------------------
B|--------------------------------------------------------------------------------
G|---------------------7--6v------------------------------------------------------
D|--6----6--6----6--6-------------6--7--6--7--6--7--6--7--6--7--6--7--6--7--6--7--
A|--------------------------------------------------------------------------------
E|--------------------------------------------------------------------------------

Stave 5:

E|----------------------------------------------------------------------------------
B|----------------------------------------------------------------------------------
G|---------------------7--6v--------------------------------------------------------
D|--6----6--6----6--6-------------10--9--6--10--9--6--10--9--6--10--9--6--10--9--6--
A|----------------------------------------------------------------------------------
E|----------------------------------------------------------------------------------

Stave 6:

E|--------------------------------------------------------------------------------
B|--------------------------------------------------------------------------------
G|---------------------7--6v------------------------------------------------------
D|--6----6--6----6--6-------------6--7--6--7--6--7--6--7--6--7--6--7--6--7--6--7--
A|--------------------------------------------------------------------------------
E|--------------------------------------------------------------------------------

Stave 7:

E|---------------------------------------------------------------------
B|---------------------------------------------------------------------
G|---------------------7--6v------9--8--6------------------------------
D|--6----6--6----6--6----------------------9--7--6---------------------
A|--------------------------------------------------9--8--6------------
E|-----------------------------------------------------------9--7--6v--

Stave 8:

E|------------------------------------------------------------------------------------------------
B|------------------------------------------------------------------------------------------------
G|------------------------------------------------------------------------------------------------
D|------------------------------------------------------------------------------------------------
A|------------------------------------------------------------------------------------------------
E|--0--0--0--0--3--3--3--3--5--5--5--6----6--5--3--0--0--0--0--3--3--3--3--5--5--5--6----6--5--3--

Stave 9:

E|--17--16--16v----16--17--18--19--16--17--18--19--16--17--18--19--16--17--18--19v--
B|----------------------------------------------------------------------------------
G|----------------------------------------------------------------------------------
D|----------------------------------------------------------------------------------
A|----------------------------------------------------------------------------------
E|----------------------------------------------------------------------------------

Stave 10:

E|--13--12--12v----12--13--14--15--12--13--14--15--12--13--14--15--12--13--14--15v--
B|----------------------------------------------------------------------------------
G|----------------------------------------------------------------------------------
D|----------------------------------------------------------------------------------
A|----------------------------------------------------------------------------------
E|----------------------------------------------------------------------------------

Stave 11:

E|--10--9--9v----9--10--11--12--9--10--11--12--9--10--11--12--9--10--11--12v--
B|----------------------------------------------------------------------------
G|----------------------------------------------------------------------------
D|----------------------------------------------------------------------------
A|----------------------------------------------------------------------------
E|----------------------------------------------------------------------------

Stave 12:

E|--8--7----5----7v-----------------------------------------
B|----------------------------------------------------------
G|----------------------------------------------------------
D|----------------------------------------------------------
A|----------------------------------------------------------
E|---------------------0------------------------------------

Stave 13:

E|--17--18--19--20--17--18--19--20--15v--16v--17v--18v--15v--16v--17v--18v--
B|--------------------------------------------------------------------------
G|--------------------------------------------------------------------------
D|--------------------------------------------------------------------------
A|--------------------------------------------------------------------------
E|--------------------------------------------------------------------------

Stave 14:

E|--17--18--19--20--17--18--19--20--17v--18v--19v--20v--17v--18v--19v--20v--
B|--------------------------------------------------------------------------
G|--------------------------------------------------------------------------
D|--------------------------------------------------------------------------
A|--------------------------------------------------------------------------
E|--------------------------------------------------------------------------

Stave 15:

E|--12v------13--12--13--12--13--12--13--12--15v--
B|------------------------------------------------
G|------------------------------------------------
D|------------------------------------------------
A|------------------------------------------------
E|------------------------------------------------

Stave 16:

E|-------------------------------------------------------------
B|-------------------------------------------------------------
G|-------------------------------------------------------------
D|-------------------------------------------------------------
A|-------------------------------------------------------------
E|--0--0--0--0--3--3--3--3--5--5--5--6----6--5--3--------------

Stave 17:

E|------------------------------------------------------------------------------------------------
B|------------------------------------------------------------------------------------------------
G|------------------------------------------------------------------------------------------------
D|------------------------------------------------------------------------------------------------
A|------------------------------------------------------------------------------------------------
E|--0--0--0--0--3--3--3--3--5--5--5--6----6--5--3--0--0--0--0--3--3--3--3--5--5--5--6----6--5--3--

Stave 18:

E|------------------------------------------------------------------------------------------------
B|------------------------------------------------------------------------------------------------
G|------------------------------------------------------------------------------------------------
D|------------------------------------------------------------------------------------------------
A|------------------------------------------------------------------------------------------------
E|--2--2--2--2--5--5--5--5--7--7--7--8----8--7--5--2--2--2--2--5--5--5--5--7--7--7--8----8--7--5--

Stave 19:

E|----------------------------------------------------------------------------------------------------
B|----------------------------------------------------------------------------------------------------
G|----------------------------------------------------------------------------------------------------
D|----------------------------------------------------------------------------------------------------
A|----------------------------------------------------------------------------------------------------
E|--4--4--4--4--7--7--7--7--9--9--9--10----10--9--7--4--4--4--4--7--7--7--7--9--9--9--10----10--9--7--

Stave 20:

E|--------
B|--------
G|--------
D|--------
A|--0-----
E|--0-----

http://www.guitartabcreator.com
Guitar Tab Creator is intended to store guitar tab created through the tool. It currently does not support in-line text editing. Any text you place in here will be lost. If you need to comment on your tab, please use the "Tab Notes" section located below.