Sound will begin in 5 seconds

hoarder

01234567891011121314151617181920212223
E
B
G
D
A
E
B
0 1 2 3 4 5 6 7 8 9 10 11 12 13 14 15 16 17 18 19 20 21 22 23
Song Science #1: How Pros Use 6 Chords to Write Hit Songs
(/) Slide Up  (\) Slide Down  (h) Hammer On  (p) Pull Off  (b) Bend (r) Release (v) Vibrato

Stave 1:

E|---------------------------------------------------------------
B|---------------------------------------------------------------
G|---------------------------------------------------------------
D|---------------------------------------------------------------
A|-13p0-10p0-------------------------------------------0-0-0-0---
E|-----------0-13p0-10p0-0-0-0-0-1p0-5p0-3p0-0-0-0-0-0-1-1-1-1-0-

Stave 2:

E|-------------------------------------15-15-15-15-------------------------------------13-13-13-13-
B|-------------------15-15-15-13-13-13-------------------------------15-15-15-13-13-13-------------
G|-12-12-12-15-15-15-------------------------------12-12-12-15-15-15-------------------------------
D|-------------------------------------------------------------------------------------------------
A|-------------------------------------------------------------------------------------------------
E|-------------------------------------------------------------------------------------------------

Stave 3:

E|------------------------------------------------------------------------------------
B|-------------------15-15-15-13-13-13-10-10-10-10------------------------------------
G|-12-12-12-15-15-15-------------------------------10-10-10\8-8-8\7-7-7/8-8-8\7-7-7-7-
D|------------------------------------------------------------------------------------
A|------------------------------------------------------------------------------------
E|------------------------------------------------------------------------------------

Stave 4:

E|-------------------------------------15-15-15-15-------------------------------------13-13-15-15-
B|-------------------15-15-15-13-13-13-------------------------------15-15-15-13-13-13-------------
G|-12-12-12-15-15-15-------------------------------12-12-12-15-15-15-------------------------------
D|-------------------------------------------------------------------------------------------------
A|-------------------------------------------------------------------------------------------------
E|-------------------------------------------------------------------------------------------------

Stave 5:

E|----------------------------------------------18-18-18-17-17-17-17-17-17-17-17-17-17b18r17-
B|-13-13-13-15-15-15-15-15-15-15-15-15-13-15-15----------------------------------------------
G|-------------------------------------------------------------------------------------------
D|-------------------------------------------------------------------------------------------
A|-------------------------------------------------------------------------------------------
E|-------------------------------------------------------------------------------------------

Stave 6:

E|-----------------------------------------------------------------------------
B|-----------------------------------------------------------------------------
G|-----------------------------------------------------------------------------
D|-----------------------------------------------------------------------------
A|-10h13p10----10---------------10h13p10----10---------------------------------
E|----------13----0-0-0-0-0-0-0----------13----0-0-0-0-0-10h13-0-10h13-0-10h13-

Stave 7:

E|-17-13-10-
B|-13-11-8--
G|----------
D|----------
A|----------
E|----------

Stave 8:

E|----------17-------------------------17-------------------13-------------------------13----------
B|----13----------13----13----13----13----13----13----13----------13----13----13----13----13----13-
G|-15----15----15----15----15----15----------15----15----15----15----15----15----15----------15----
D|-------------------------------------------------------------------------------------------------
A|-------------------------------------------------------------------------------------------------
E|-------------------------------------------------------------------------------------------------

Stave 9:

E|----------17-------------------------17-------------------13-------------------------13-13-13-13-
B|----13----------13----13----13----13----13----13----13----------13----13----13----13-13-13-13-13-
G|-15----15----15----15----15----15----------15----15----15----15----15----15----15----15-15-15-15-
D|-------------------------------------------------------------------------------------------------
A|-------------------------------------------------------------------------------------------------
E|-------------------------------------------------------------------------------------------------

http://www.guitartabcreator.com
Guitar Tab Creator is intended to store guitar tab created through the tool. It currently does not support in-line text editing. Any text you place in here will be lost. If you need to comment on your tab, please use the "Tab Notes" section located below.